Pearl Jam

home > Pearl Jam

Let me Sleep Tab

Pearl Jam

Difficulty: nolevelnolevel

tuner correct add songbook print version text version save to e-mail
chordsukulelecavacokeyboardtabbassdrumsharmonicsflute Guitar Pro
chords

Let me Sleep

Year: 2003 - Album: Lost Dogs: Rarities and B Sides

  		Two guitars arranged for one:
                                                                           
|--5--3h5p3---------------3--|
|------------5--(1/4)--3--3--|               Riff A (play 2x)
|-------------------------0--|
|----------------------------|
|----------------------------|
|----------------------------|

Cold wind blows on the soles of my feet      (with Riff A 6x)
Heaven knows nothing of me
I'm lost, nowhere to go

|--10--8h10p8--7-----7-----7--|--10--8h10p8--7-----7-----7--|
|-----------------8-----8-----|-----------------8-----8-----|
|-----------------0-----0-----|-----------------0-----0-----|    Riff B
|-----------------------------|-----------------------------|
|-----------------------------|-----------------------------|
|-----------------------------|-----------------------------|

|--5--3h5p3--|
|------------|
|------------|
|------------|
|------------|
|------------|

D              C       D                C
Oh, when I was a kid...oh, how magic it seemed

D          C                  G
Oh, please let me sleep, it's Christmas time

(play riff A 2x)

Flowered winds was where I lived             (with riff A 6x)
Thought you burned, not froze for your sins
Oh, I'm so tired, and cold

(play riff B)

D                C     D                C
Oh, when I was a kid...oh, how magic it seemed

D          C                  G
Oh, please let me sleep, it's Christmas time

|--5--3h5p3--------------|
|------------3--3--2--3--|               Riff C (play 4x)
|---------------0--0--0--|
|------------------------|
|------------------------|
|------------------------|

D                     C     D                C
Oh...oh, when I was a kid...oh, how magic it seemed

D          C                  G
Oh, please let me sleep, it's Christmas time

D                           C     D                C
Oh...oh, when I, if I was a kid...oh, how magic it seemed

D          C                  G
Oh, please let me dream, it's Christmas time

(Repeat first bar of Riff B and fade)
	  

Full key step upFull key step up
Half key step upHalf key step up
Half key step downHalf key step down
Full key step downFull key step down
Search Paypal
auto scroll beats size up size down change color hide chords drawings
tab show chords e-chords YouTube Clip e-chords hide all tabs e-chords go to top tab