Pearl Jam

home > Pearl Jam

Leatherman Tab

Pearl Jam

Difficulty: nolevelnolevel

by Apocalyptica

tuner correct add songbook print version text version save to e-mail
chordsukulelecavacokeyboardtabbassdrumsharmonicsflute Guitar Pro
chords

Leatherman

Year: 2003 - Album: Live: 07-11-03 Mansfield, MA

  		Transcribed by: Thiago Oliveira da Costa 
Email: [email protected] 
 
I think there are 3 guitars. 
The Guitar uses - Distortion/Delay and Reverb. 
 
Verse 
Guitar one 
|-----2----------3---------3---------2-------------------------------- 
|-------3----------3---------3---------3------------------------------ 
|---2---------0----------0---------2---------------------------------- 
|-0------------------------------0------------------------------------ 
|----------3---------------------------------------------------------- 
|----------------------3---------------------------------------------- 
  i heard about        a man     to whom   
 
Guitar Two 
|--------------------------------------------------------------------- 
|--------------------------------------------------------------------- 
|-7--7-----5--5------------------7--7--------------------------------- 
|-7--7-----5--5-------5--5-------7--7--------------------------------- 
|-5--5-----3--3-------5--5-------5--5--------------------------------- 
|---------------------3--3-------------------------------------------- 
 
Guitar one 
|-----2----------3---------3---------2-------------------------------- 
|-------3----------3---------3---------3------------------------------ 
|---2---------0----------0---------2---------------------------------- 
|-0------------------------------0------------------------------------ 
|----------3---------------------------------------------------------- 
|----------------------3---------------------------------------------- 
i may be related he's leatherman   
 
Guitar two 
|--------------------------------------------------------------------- 
|--------------------------------------------------------------------- 
|-7--7-----5--5------------------7--7--------------------------------- 
|-7--7-----5--5-------5--5-------7--7--------------------------------- 
|-5--5-----3--3-------5--5-------5--5--------------------------------- 
|---------------------3--3-------------------------------------------- 
 
Guitar one 
|-----2------------3---------3---------2------------------------------ 
|-------3------------3---------3---------3---------------------------- 
|---2-----------0----------0---------2-------------------------------- 
|-0--------------------------------0---------------------------------- 
|------------3-------------------------------------------------------- 
|----------------------3---------------------------------------------- 
died a long time ago  in the     18 
 
Guitar two 
|--------------------------------------------------------------------- 
|--------------------------------------------------------------------- 
|-7--7-----5--5------------------7--7--------------------------------- 
|-7--7-----5--5-------5--5-------7--7--------------------------------- 
|-5--5-----3--3-------5--5-------5--5--------------------------------- 
|---------------------3--3-------------------------------------------- 
 
Guitar one 
|-----2----------3-----------3---------2------------------------------ 
|-------3----------3-----------3---------3---------------------------- 
|---2---------0------------0---------2-------------------------------- 
|-0--------------------------------0---------------------------------- 
|----------3---------------------------------------------------------- 
|------------------------3-------------------------------------------- 
  80s    leatherman   leatherman  
 
Guitar two 
|--------------------------------------------------------------------- 
|--------------------------------------------------------------------- 
|-7--7-----5--5--------------------7--7------------------------------- 
|-7--7-----5--5---------5--5-------7--7------------------------------- 
|-5--5-----3--3---------5--5-------5--5------------------------------- 
|-----------------------3--3------------------------------------------ 
 
Pre Chorus 
Guitar one 
|-0-0-0-0-0-0-0-0-0----------0-0-0---3-3-3---------------------------- 
|-1-1-1-1-1-1-1-1-1----------1-1-1---3-3-3---------------------------- 
|-2-2-2-2-2-2-2-2-2----------0-0-0---0-0-0---------------------------- 
|-2-2-2-2-2-2-2-2-2----------2-2-2---0-0-0---------------------------- 
|-0-0-0-0-0-0-0-0-0----------3-3-3---2-2-2---------------------------- 
|------------------------------------3-3-3---------------------------- 
covered with leather but it wasn't tight 
 
Guitar two 
|--------------------------------------------------------------------- 
|--------------------------------------------------------------------- 
|-2-2-2-2-2-2-2-2-2----------5-5-5------------------------------------ 
|-2-2-2-2-2-2-2-2-2----------5-5-5---5-5-5---------------------------- 
|-0-0-0-0-0-0-0-0-0----------3-3-3---5-5-5---------------------------- 
|------------------------------------3-3-3---------------------------- 
 
Guitar one 
|-2-2-2-2-2-2-2-2-2-------3-3-3----0-0-0------------------------------ 
|-3-3-3-3-3-3-3-3-3-------3-3-3----2-2-2------------------------------ 
|-4-4-4-4-4-4-4-4-4-------0-0-0----2-2-2------------------------------ 
|-4-4-4-4-4-4-4-4-4-------0-0-0----2-2-2------------------------------ 
|-2-2-2-2-2-2-2-2-2-------2-2-2----0-0-0------------------------------ 
|-------------------------3-3-3--------------------------------------- 
underneath a moon in the woods at night     
					Hold A 
 
Guitar two 
|--------------------------------------------------------------------- 
|--------------------------------------------------------------------- 
|-4-4-4-4-4-4-4-4-4--------------------------------------------------- 
|-4-4-4-4-4-4-4-4-4-------5-5-5----7-7-7------------------------------ 
|-2-2-2-2-2-2-2-2-2-------5-5-5----7-7-7------------------------------ 
|-------------------------3-3-3----5-5-5------------------------------ 
					Hold A 
Verse 2 
Guitar one 
|-2-2-2-2-2----3-3-3-3---1-1-1-1---3-3-3-3---------------------------- 
|-3-3-3-3-3----3-3-3-3---1-1-1-1---3-3-3-3---------------------------- 
|-2-2-2-2-2----0-0-0-0---2-2-2-2---0-0-0-0---------------------------- 
|-0-0-0-0-0----0-0-0-0---3-3-3-3---0-0-0-0---------------------------- 
|--------------2-2-2-2---3-3-3-3---2-2-2-2---------------------------- 
|--------------3-3-3-3---1-1-1-1---3-3-3-3---------------------------- 
making the    rounds ten miles a   day 
 
Guitar two 
|--------------------------------------------------------------------- 
|--------------------------------------------------------------------- 
|-7-7-7-7-7----------------------------------------------------------- 
|-7-7-7-7-7----5-5-5-5---3-3-3-3---5-5-5-5---------------------------- 
|-5-5-5-5-5----5-5-5-5---3-3-3-3---5-5-5-5---------------------------- 
|--------------3-3-3-3---1-1-1-1---3-3-3-3---------------------------- 
 
Guitar one 
|-2-2-2-2-2----3-3-3-3---1-1-1-1-1-1-1-1-1--------3-3-3-3------------- 
|-3-3-3-3-3----3-3-3-3---1-1-1-1-1-1-1-1-1--------3-3-3-3------------- 
|-2-2-2-2-2----0-0-0-0---2-2-2-2-2-2-2-2-2--------0-0-0-0------------- 
|-0-0-0-0-0----0-0-0-0---3-3-3-3-3-3-3-3-3--------0-0-0-0------------- 
|--------------2-2-2-2---3-3-3-3-3-3-3-3-3--------2-2-2-2------------- 
|--------------3-3-3-3---1-1-1-1-1-1-1-1-1--------3-3-3-3------------- 
once a month they'd spot him and here's what they'd say 
 
Guitar two 
|--------------------------------------------------------------------- 
|--------------------------------------------------------------------- 
|-7-7-7-7-7----------------------------------------------------------- 
|-7-7-7-7-7----5-5-5-5---3-3-3-3-3-3-3-3-3--------5-5-5-5------------- 
|-5-5-5-5-5----5-5-5-5---3-3-3-3-3-3-3-3-3--------5-5-5-5------------- 
|--------------3-3-3-3---1-1-1-1-1-1-1-1-1--------3-3-3-3------------- 
 
Chorus  
Guitar one 
|-2-2-2-2-2----3-3-3-3-----1-1-1-1------3-3-3-3----------------------- 
|-3-3-3-3-3----3-3-3-3-----1-1-1-1------3-3-3-3----------------------- 
|-2-2-2-2-2----0-0-0-0-----2-2-2-2------0-0-0-0----------------------- 
|-0-0-0-0-0----0-0-0-0-----3-3-3-3------0-0-0-0----------------------- 
|--------------2-2-2-2-----3-3-3-3------2-2-2-2----------------------- 
|--------------3-3-3-3-----1-1-1-1------3-3-3-3----------------------- 
here he        comes he's a man of the land          hes 
 
Guitar two 
|--------------------------------------------------------------------- 
|--------------------------------------------------------------------- 
|-7-7-7-7-7----------------------------------------------------------- 
|-7-7-7-7-7----5-5-5-5-----3-3-3-3------5-5-5-5----------------------- 
|-5-5-5-5-5----5-5-5-5-----3-3-3-3------5-5-5-5----------------------- 
|--------------3-3-3-3-----1-1-1-1------3-3-3-3----------------------- 
 
Guitar one 
|-2-2-2-2-2----3-3-3-3------1-1-1-1------3-3-3-3---------------------- 
|-3-3-3-3-3----3-3-3-3------1-1-1-1------3-3-3-3---------------------- 
|-2-2-2-2-2----0-0-0-0------2-2-2-2------0-0-0-0---------------------- 
|-0-0-0-0-0----0-0-0-0------3-3-3-3------0-0-0-0---------------------- 
|--------------2-2-2-2------3-3-3-3------2-2-2-2---------------------- 
|--------------3-3-3-3------1-1-1-1------3-3-3-3---------------------- 
leatherman     smile on his face,      axe in  
 
Guitar two 
|--------------------------------------------------------------------- 
|--------------------------------------------------------------------- 
|-7-7-7-7-7----------------------------------------------------------- 
|-7-7-7-7-7----5-5-5-5------3-3-3-3------5-5-5-5---------------------- 
|-5-5-5-5-5----5-5-5-5------3-3-3-3------5-5-5-5---------------------- 
|--------------3-3-3-3------1-1-1-1------3-3-3-3---------------------- 
 
Guitar one 
|-2-2-2-2-2----3-3-3-3------1-1-1-1------3-3-3-3---------------------- 
|-3-3-3-3-3----3-3-3-3------1-1-1-1------3-3-3-3---------------------- 
|-2-2-2-2-2----0-0-0-0------2-2-2-2------0-0-0-0---------------------- 
|-0-0-0-0-0----0-0-0-0------3-3-3-3------0-0-0-0---------------------- 
|--------------2-2-2-2------3-3-3-3------2-2-2-2---------------------- 
|--------------3-3-3-3------1-1-1-1------3-3-3-3---------------------- 
his pack he's leatherman, leatherman,   leatherman 
 
Guitar two 
|--------------------------------------------------------------------- 
|--------------------------------------------------------------------- 
|-7-7-7-7-7----------------------------------------------------------- 
|-7-7-7-7-7----5-5-5-5------3-3-3-3------5-5-5-5---------------------- 
|-5-5-5-5-5----5-5-5-5------3-3-3-3------5-5-5-5---------------------- 
|--------------3-3-3-3------1-1-1-1------3-3-3-3---------------------- 
 
Guitar one 
|-2-2-2-2-2----3-3-3-3------1-1-1-1-1-1-1-1-1------------------------- 
|-3-3-3-3-3----3-3-3-3------1-1-1-1-1-1-1-1-1------------------------- 
|-2-2-2-2-2----0-0-0-0------2-2-2-2-2-2-2-2-2------------------------- 
|-0-0-0-0-0----0-0-0-0------3-3-3-3-3-3-3-3-3------------------------- 
|--------------2-2-2-2------3-3-3-3-3-3-3-3-3------------------------- 
|--------------3-3-3-3------1-1-1-1-1-1-1-1-1------------------------- 
 
Guitar two 
|--------------------------------------------------------------------- 
|--------------------------------------------------------------------- 
|-7-7-7-7-7----------------------------------------------------------- 
|-7-7-7-7-7----5-5-5-5------3-3-3-3-3-3-3-3-3------------------------- 
|-5-5-5-5-5----5-5-5-5------3-3-3-3-3-3-3-3-3------------------------- 
|--------------3-3-3-3------1-1-1-1-1-1-1-1-1------------------------- 
 
Interlude  
Guitar One 
|-0---------------------3----------------1---------------------------- 
|-1---------------------3----------------1---------------------------- 
|-0---------------------0----------------3---------------------------- 
|-2---------------------0----------------2---------------------------- 
|-3---------------------2----------------2---------------------------- 
|-----------------------3----------------1---------------------------- 
comes out of the caves once a day to be fed 
 
Guitar two 
|--------------------------------------------------------------------- 
|--------------------------------------------------------------------- 
|-5------------------------------------------------------------------- 
|-5---------------------5----------------3---------------------------- 
|-3---------------------5----------------3---------------------------- 
|-----------------------3----------------1---------------------------- 
 
Guitar One 
|-0----------1--------------0----------------0-0-0-0-0-0-0------------ 
|-1----------1--------------1----------------2-2-2-2-2-2-2------------ 
|-0----------2--------------0----------------2-2-2-2-2-2-2------------ 
|-2----------3--------------2----------------2-2-2-2-2-2-2------------ 
|-3----------3--------------3----------------0-0-0-0-0-0-0------------ 
|------------1-------------------------------------------------------- 
he wasn't known to stay much but thanks for the bread 
 
Guitar two 
|------------1-------------------------------------------------------- 
|------------1-------------------------------------------------------- 
|-5----------2--------------5----------------2-2-2-2-2-2-2------------ 
|-5----------3--------------5----------------2-2-2-2-2-2-2------------ 
|-3----------3--------------3----------------0-0-0-0-0-0-0------------ 
|------------1-------------------------------------------------------- 
 
Verse 
Guitar one 
|-----2------------3---------3---------2------------------------------ 
|-------3------------3---------3---------3---------------------------- 
|---2-----------0----------0---------2-------------------------------- 
|-0--------------------------------0---------------------------------- 
|------------3-------------------------------------------------------- 
|------------------------3-------------------------------------------- 
  so modern day       I  walk my   way with my  
 
 
Guitar Two 
|--------------------------------------------------------------------- 
|--------------------------------------------------------------------- 
|-7--7-------5--5------------------7--7------------------------------- 
|-7--7-------5--5--------5--5------7--7------------------------------- 
|-5--5-------3--3--------5--5------5--5------------------------------- 
|------------------------3--3----------------------------------------- 
 
Guitar one 
|-----2----------3---------3------------2----------------------------- 
|-------3----------3---------3------------3--------------------------- 
|---2---------0----------0------------2------------------------------- 
|-0---------------------------------0--------------------------------- 
|----------3---------------------------------------------------------- 
|----------------------3---------------------------------------------- 
 jacket    faded         just like the man of 
 
Guitar two 
|--------------------------------------------------------------------- 
|--------------------------------------------------------------------- 
|-7--7-----5--5---------------------7--7------------------------------ 
|-7--7-----5--5--------5--5---------7--7------------------------------ 
|-5--5-----3--3--------5--5---------5--5------------------------------ 
|----------------------3--3------------------------------------------- 
 
Guitar one 
|-----2------------3---------3---------2------------------------------ 
|-------3------------3---------3---------3---------------------------- 
|---2-----------0----------0---------2-------------------------------- 
|-0--------------------------------0---------------------------------- 
|------------3-------------------------------------------------------- 
|----------------------3---------------------------------------------- 
 leather whom i       may be    related 
 
Guitar two 
|--------------------------------------------------------------------- 
|--------------------------------------------------------------------- 
|-7--7-----5--5------------------7--7--------------------------------- 
|-7--7-----5--5-------5--5-------7--7--------------------------------- 
|-5--5-----3--3-------5--5-------5--5--------------------------------- 
|---------------------3--3-------------------------------------------- 
 
Guitar one 
|-----2----------3-----------3---------2------------------------------ 
|-------3----------3-----------3---------3---------------------------- 
|---2---------0------------0---------2-------------------------------- 
|-0--------------------------------0---------------------------------- 
|----------3---------------------------------------------------------- 
|------------------------3-------------------------------------------- 
 
Guitar two 
|--------------------------------------------------------------------- 
|--------------------------------------------------------------------- 
|-7--7-----5--5--------------------7--7------------------------------- 
|-7--7-----5--5---------5--5-------7--7------------------------------- 
|-5--5-----3--3---------5--5-------5--5------------------------------- 
|-----------------------3--3------------------------------------------ 
 
Pre Chorus 
Guitar one 
|-0-0-0-0-0-0-0-0-0--------------0-0-0---3-3-3------------------------ 
|-1-1-1-1-1-1-1-1-1--------------1-1-1---3-3-3------------------------ 
|-2-2-2-2-2-2-2-2-2--------------0-0-0---0-0-0------------------------ 
|-2-2-2-2-2-2-2-2-2--------------2-2-2---0-0-0------------------------ 
|-0-0-0-0-0-0-0-0-0--------------3-3-3---2-2-2------------------------ 
|----------------------------------------3-3-3------------------------ 
rolled cigarette for which he'd ask for a light 
 
Guitar two 
|--------------------------------------------------------------------- 
|--------------------------------------------------------------------- 
|-2-2-2-2-2-2-2-2-2--------------5-5-5-------------------------------- 
|-2-2-2-2-2-2-2-2-2--------------5-5-5---5-5-5------------------------ 
|-0-0-0-0-0-0-0-0-0--------------3-3-3---5-5-5------------------------ 
|----------------------------------------3-3-3------------------------ 
 
Guitar one 
|-2-2-2-2-2-2-2-2-2-------3-3-3----0-0-0------------------------------ 
|-3-3-3-3-3-3-3-3-3-------3-3-3----2-2-2------------------------------ 
|-4-4-4-4-4-4-4-4-4-------0-0-0----2-2-2------------------------------ 
|-4-4-4-4-4-4-4-4-4-------0-0-0----2-2-2------------------------------ 
|-2-2-2-2-2-2-2-2-2-------2-2-2----0-0-0------------------------------ 
|-------------------------3-3-3--------------------------------------- 
a fear beaten animal yet so     polite 
					Hold A 
 
Guitar two 
|--------------------------------------------------------------------- 
|--------------------------------------------------------------------- 
|-4-4-4-4-4-4-4-4-4--------------------------------------------------- 
|-4-4-4-4-4-4-4-4-4-------5-5-5----7-7-7------------------------------ 
|-2-2-2-2-2-2-2-2-2-------5-5-5----7-7-7------------------------------ 
|-------------------------3-3-3----5-5-5------------------------------ 
					Hold A 
 
Verse 2 
Guitar one 
|-2-2-2-2-2----3-3-3-3---1-1-1-1---3-3-3-3---------------------------- 
|-3-3-3-3-3----3-3-3-3---1-1-1-1---3-3-3-3---------------------------- 
|-2-2-2-2-2----0-0-0-0---2-2-2-2---0-0-0-0---------------------------- 
|-0-0-0-0-0----0-0-0-0---3-3-3-3---0-0-0-0---------------------------- 
|--------------2-2-2-2---3-3-3-3---2-2-2-2---------------------------- 
|--------------3-3-3-3---1-1-1-1---3-3-3-3---------------------------- 
making the    rounds ten miles a   day 
 
Guitar two 
|--------------------------------------------------------------------- 
|--------------------------------------------------------------------- 
|-7-7-7-7-7----------------------------------------------------------- 
|-7-7-7-7-7----5-5-5-5---3-3-3-3---5-5-5-5---------------------------- 
|-5-5-5-5-5----5-5-5-5---3-3-3-3---5-5-5-5---------------------------- 
|--------------3-3-3-3---1-1-1-1---3-3-3-3---------------------------- 
 
Guitar one 
|-2-2-2-2-2----3-3-3-3---1-1-1-1-1-1-1-1-1--------3-3-3-3------------- 
|-3-3-3-3-3----3-3-3-3---1-1-1-1-1-1-1-1-1--------3-3-3-3------------- 
|-2-2-2-2-2----0-0-0-0---2-2-2-2-2-2-2-2-2--------0-0-0-0------------- 
|-0-0-0-0-0----0-0-0-0---3-3-3-3-3-3-3-3-3--------0-0-0-0------------- 
|--------------2-2-2-2---3-3-3-3-3-3-3-3-3--------2-2-2-2------------- 
|--------------3-3-3-3---1-1-1-1-1-1-1-1-1--------3-3-3-3------------- 
once a month they'd spot him and here's what they'd say 
 
Guitar two 
|--------------------------------------------------------------------- 
|--------------------------------------------------------------------- 
|-7-7-7-7-7----------------------------------------------------------- 
|-7-7-7-7-7----5-5-5-5---3-3-3-3-3-3-3-3-3--------5-5-5-5------------- 
|-5-5-5-5-5----5-5-5-5---3-3-3-3-3-3-3-3-3--------5-5-5-5------------- 
|--------------3-3-3-3---1-1-1-1-1-1-1-1-1--------3-3-3-3------------- 
 
Chorus  
Guitar one 
|-2-2-2-2-2----3-3-3-3-----1-1-1-1------3-3-3-3----------------------- 
|-3-3-3-3-3----3-3-3-3-----1-1-1-1------3-3-3-3----------------------- 
|-2-2-2-2-2----0-0-0-0-----2-2-2-2------0-0-0-0----------------------- 
|-0-0-0-0-0----0-0-0-0-----3-3-3-3------0-0-0-0----------------------- 
|--------------2-2-2-2-----3-3-3-3------2-2-2-2----------------------- 
|--------------3-3-3-3-----1-1-1-1------3-3-3-3----------------------- 
here he        comes he's a man of the land          hes 
 
Guitar two 
|--------------------------------------------------------------------- 
|--------------------------------------------------------------------- 
|-7-7-7-7-7----------------------------------------------------------- 
|-7-7-7-7-7----5-5-5-5-----3-3-3-3------5-5-5-5----------------------- 
|-5-5-5-5-5----5-5-5-5-----3-3-3-3------5-5-5-5----------------------- 
|--------------3-3-3-3-----1-1-1-1------3-3-3-3----------------------- 
 
Guitar one 
|-2-2-2-2-2----3-3-3-3------1-1-1-1------3-3-3-3---------------------- 
|-3-3-3-3-3----3-3-3-3------1-1-1-1------3-3-3-3---------------------- 
|-2-2-2-2-2----0-0-0-0------2-2-2-2------0-0-0-0---------------------- 
|-0-0-0-0-0----0-0-0-0------3-3-3-3------0-0-0-0---------------------- 
|--------------2-2-2-2------3-3-3-3------2-2-2-2---------------------- 
|--------------3-3-3-3------1-1-1-1------3-3-3-3---------------------- 
leatherman     smile on his face,      axe in  
 
Guitar two 
|--------------------------------------------------------------------- 
|--------------------------------------------------------------------- 
|-7-7-7-7-7----------------------------------------------------------- 
|-7-7-7-7-7----5-5-5-5------3-3-3-3------5-5-5-5---------------------- 
|-5-5-5-5-5----5-5-5-5------3-3-3-3------5-5-5-5---------------------- 
|--------------3-3-3-3------1-1-1-1------3-3-3-3---------------------- 
 
Guitar one 
|-2-2-2-2-2----3-3-3-3------1-1-1-1------3-3-3-3---------------------- 
|-3-3-3-3-3----3-3-3-3------1-1-1-1------3-3-3-3---------------------- 
|-2-2-2-2-2----0-0-0-0------2-2-2-2------0-0-0-0---------------------- 
|-0-0-0-0-0----0-0-0-0------3-3-3-3------0-0-0-0---------------------- 
|--------------2-2-2-2------3-3-3-3------2-2-2-2---------------------- 
|--------------3-3-3-3------1-1-1-1------3-3-3-3---------------------- 
his hand he's leatherman, leatherman,   leatherman 
 
Guitar two 
|--------------------------------------------------------------------- 
|--------------------------------------------------------------------- 
|-7-7-7-7-7----------------------------------------------------------- 
|-7-7-7-7-7----5-5-5-5------3-3-3-3------5-5-5-5---------------------- 
|-5-5-5-5-5----5-5-5-5------3-3-3-3------5-5-5-5---------------------- 
|--------------3-3-3-3------1-1-1-1------3-3-3-3---------------------- 
 
Guitar one 
|-2-2-2-2-2----3-3-3-3------1-1-1-1------3-3-3-3---------------------- 
|-3-3-3-3-3----3-3-3-3------1-1-1-1------3-3-3-3---------------------- 
|-2-2-2-2-2----0-0-0-0------2-2-2-2------0-0-0-0---------------------- 
|-0-0-0-0-0----0-0-0-0------3-3-3-3------0-0-0-0---------------------- 
|--------------2-2-2-2------3-3-3-3------2-2-2-2---------------------- 
|--------------3-3-3-3------1-1-1-1------3-3-3-3---------------------- 
				    leatherman,   leatherman 
 
Guitar two 
|--------------------------------------------------------------------- 
|--------------------------------------------------------------------- 
|-7-7-7-7-7----------------------------------------------------------- 
|-7-7-7-7-7----5-5-5-5------3-3-3-3------5-5-5-5---------------------- 
|-5-5-5-5-5----5-5-5-5------3-3-3-3------5-5-5-5---------------------- 
|--------------3-3-3-3------1-1-1-1------3-3-3-3---------------------- 
 
Guitar one 
|-2-2-2-2-2----3-3-3-3------1-1-1-1-1-1-1-1-1------------------------- 
|-3-3-3-3-3----3-3-3-3------1-1-1-1-1-1-1-1-1------------------------- 
|-2-2-2-2-2----0-0-0-0------2-2-2-2-2-2-2-2-2------------------------- 
|-0-0-0-0-0----0-0-0-0------3-3-3-3-3-3-3-3-3------------------------- 
|--------------2-2-2-2------3-3-3-3-3-3-3-3-3------------------------- 
|--------------3-3-3-3------1-1-1-1-1-1-1-1-1------------------------- 
							Shake his  
Guitar two 
|--------------------------------------------------------------------- 
|--------------------------------------------------------------------- 
|-7-7-7-7-7----------------------------------------------------------- 
|-7-7-7-7-7----5-5-5-5------3-3-3-3-3-3-3-3-3------------------------- 
|-5-5-5-5-5----5-5-5-5------3-3-3-3-3-3-3-3-3------------------------- 
|--------------3-3-3-3------1-1-1-1-1-1-1-1-1------------------------- 
 
Guitar one 
|--3-3-3-3-3--------3-3-3-3-3--------3-3-3-3-3--------3-3-3-3-3------- 
|--3-3-3-3-3--------3-3-3-3-3--------3-3-3-3-3--------3-3-3-3-3------- 
|--4-4-4-4-4--------2-2-2-2-2--------4-4-4-4-4--------2-2-2-2-2------- 
|--5-5-5-5-5--------3-3-3-3-3--------5-5-5-5-5--------3-3-3-3-3------- 
|--5-5-5-5-5--------3-3-3-3-3--------5-5-5-5-5--------3-3-3-3-3------- 
|--3-3-3-3-3--------1-1-1-1-1--------3-3-3-3-3--------1-1-1-1-1------- 
   hand hes leatherman , bake some bread hes leatherman       shame hes 
 
Guitar two 
|--------------------------------------------------------------------- 
|--------------------------------------------------------------------- 
|--------------------------------------------------------------------- 
|--5-5-5-5-5--------3-3-3-3-3--------5-5-5-5-5--------3-3-3-3-3------- 
|--5-5-5-5-5--------3-3-3-3-3--------5-5-5-5-5--------3-3-3-3-3------- 
|--3-3-3-3-3--------1-1-1-1-1--------3-3-3-3-3--------1-1-1-1-1------- 
 
Guitar one 
|--3-3-3-3-3--------3-3-3-3-3------------3-3-3-3-3-------------------- 
|--3-3-3-3-3--------3-3-3-3-3------------3-3-3-3-3-------------------- 
|--4-4-4-4-4--------2-2-2-2-2------------4-4-4-4-4-------------------- 
|--5-5-5-5-5--------3-3-3-3-3------------5-5-5-5-5-------------------- 
|--5-5-5-5-5--------3-3-3-3-3------------5-5-5-5-5-------------------- 
|--3-3-3-3-3--------1-1-1-1-1------------3-3-3-3-3-------------------- 
   dead i saw his   bed, its all thats left of leather... 
 
Guitar two 
|--------------------------------------------------------------------- 
|--------------------------------------------------------------------- 
|--------------------------------------------------------------------- 
|--5-5-5-5-5--------3-3-3-3-3------------5-5-5-5-5-------------------- 
|--5-5-5-5-5--------3-3-3-3-3------------5-5-5-5-5-------------------- 
|--3-3-3-3-3--------1-1-1-1-1------------3-3-3-3-3-------------------- 
 
Guitar one 
|-2-2-2-2-2----3-3-3-3---1-1-1-1---3-3-3-3---------------------------- 
|-3-3-3-3-3----3-3-3-3---1-1-1-1---3-3-3-3---------------------------- 
|-2-2-2-2-2----0-0-0-0---2-2-2-2---0-0-0-0---------------------------- 
|-0-0-0-0-0----0-0-0-0---3-3-3-3---0-0-0-0---------------------------- 
|--------------2-2-2-2---3-3-3-3---2-2-2-2---------------------------- 
|--------------3-3-3-3---1-1-1-1---3-3-3-3---------------------------- 
  man						leather... 
 
Guitar two 
|--------------------------------------------------------------------- 
|--------------------------------------------------------------------- 
|-7-7-7-7-7----------------------------------------------------------- 
|-7-7-7-7-7----5-5-5-5---3-3-3-3---5-5-5-5---------------------------- 
|-5-5-5-5-5----5-5-5-5---3-3-3-3---5-5-5-5---------------------------- 
|--------------3-3-3-3---1-1-1-1---3-3-3-3---------------------------- 
 
Guitar one 
|-2-2-2-2-2----3-3-3-3---1-1-1-1-------------------------------------- 
|-3-3-3-3-3----3-3-3-3---1-1-1-1-------------------------------------- 
|-2-2-2-2-2----0-0-0-0---2-2-2-2-------------------------------------- 
|-0-0-0-0-0----0-0-0-0---3-3-3-3-------------------------------------- 
|--------------2-2-2-2---3-3-3-3-------------------------------------- 
|--------------3-3-3-3---1-1-1-1-------------------------------------- 
  man		      leatherman		 
 
Guitar two 
|--------------------------------------------------------------------- 
|--------------------------------------------------------------------- 
|-7-7-7-7-7----------------------------------------------------------- 
|-7-7-7-7-7----5-5-5-5---3-3-3-3-------------------------------------- 
|-5-5-5-5-5----5-5-5-5---3-3-3-3-------------------------------------- 
|--------------3-3-3-3---1-1-1-1-------------------------------------- 
 
Guitar one 
|--3-3-3-3-3--------3-3-3-3-3------------3-3-3-3-3-------------------- 
|--3-3-3-3-3--------3-3-3-3-3------------3-3-3-3-3-------------------- 
|--4-4-4-4-4--------2-2-2-2-2------------4-4-4-4-4-------------------- 
|--5-5-5-5-5--------3-3-3-3-3------------5-5-5-5-5-------------------- 
|--5-5-5-5-5--------3-3-3-3-3------------5-5-5-5-5-------------------- 
|--3-3-3-3-3--------1-1-1-1-1------------3-3-3-3-3-------------------- 
      Give me some skin                     leather.... 
 
Guitar two 
|--------------------------------------------------------------------- 
|--------------------------------------------------------------------- 
|--------------------------------------------------------------------- 
|--5-5-5-5-5--------3-3-3-3-3------------5-5-5-5-5-------------------- 
|--5-5-5-5-5--------3-3-3-3-3------------5-5-5-5-5-------------------- 
|--3-3-3-3-3--------1-1-1-1-1------------3-3-3-3-3-------------------- 
 
Guitar one 
|---5----------------------------------------------------------------- 
|---3----------------------------------------------------------------- 
|---4----------------------------------------------------------------- 
|---4----------------------------------------------------------------- 
|---2----------------------------------------------------------------- 
|--------------------------------------------------------------------- 
   Man!!!!	 
 
Guitar two 
|--------------------------------------------------------------------- 
|--------------------------------------------------------------------- 
|---4----------------------------------------------------------------- 
|---4----------------------------------------------------------------- 
|---2----------------------------------------------------------------- 
|--------------------------------------------------------------------- 
	  

Search Paypal
auto scroll beats size up size down change color hide chords drawings
tab show chords e-chords YouTube Clip e-chords hide all tabs e-chords go to top tab