Pearl Jam

home > Pearl Jam

I've got a feeling Tab

Pearl Jam

Difficulty: IntermediateIntermediate

by Apocalyptica

tuner correct add songbook print version text version save to e-mail
chordsukulelecavacokeyboardtabbassdrumsharmonicsflute Guitar Pro
chords

I've got a feeling

(Ten import version)

  		Transcribed by: Evan Cowan 
Email: [email protected] 
 
The two guitar parts aren't lined up exactly, and neither 
is lined up with the lyrics well either 
The recording is about a quarter step sharp 
 
-|-----5-----------5------------------5-----5----------0------5------5----5-|- 
-|-----2--2h3-3-3--5-------2--2h3-3-3-5-----5--2h3-3-3-3------2--2h3---3--3-|- 
-|--2-----2-----2-------2--2--2-----2---2------2---2-2---0----2--2----------|- 
-|--2-----2h4--------4--2--2--2h4---------2----2h4------------2-------------|- 
-|--0-------------------0-----------------------------------0---------------|- 
-|--------------------------------------------------------------------------|- 
 G1                                                                            
 
-|-------5---------5--------5-----5---5--------5-----5---5-----5------5---5-|- 
-|-------2--2h3-3--3--------2-2h3-3-3-3--------2-2h3-3-3-3-----2--2h3-3-3-3-|- 
-|----------2---2-------------2------------------2-----2----------2-----2---|- 
-|--2-------2h4----------2----2h4----------------2h4--------------2h4-------|- 
-|--0--------------------0----------------0-0--------------0-0--------------|- 
-|--------------------------------------------------------------------------|- 
 G1 I've got a feeling a feeling deep inside oh yea        oh yea              
 
-|-----5-----------------------------5----------------------------------5---|- 
-|-----2------3-3--3-------2--2h3-3--3-3-----2--2h3-3--3-----2--2h3-3-3-3---|- 
-|--2--2--2-----2--2-0--2--2--2---2----2-----2--2---2--2-----2--2---2-2-----|- 
-|--2-----2h4------4----2--2--2h4------------2--2h4----4--------------------|- 
-|--0-------------------0-----------------0---------------0-----------------|- 
-|--------------------------------------------------------------------------|- 
 G1 I've got a feeling a feeling I can't hide oh no    woh no                  
 
-|--------------------------------------------------------------------------|- 
-|--------2h3-3-3--3-------2--2h3-3----3--2--2--2h3-3--3--2--2--2h3-3-3-3-3-|- 
-|--------2---2-2--2-------2--2---2-2--2--2--2--2---2--2--2--2--2---2-2-2-2-|- 
-|--------2h4---4--4-------2--2h4---4--4--2--2--2h4-4--4--2--2--2h4-4-4-4-4-|- 
-|--------------------------------------------------------------------------|- 
-|--------------------------------------------------------------------------|- 
 G2                                                                            
 
-|---------------------------------------------------------------|------------ 
-|--2--2---------------------------------------------------------|------------ 
-|--2--2----7b9--9---9---9vvvvvvvvvvvvvvvvvvvvvvvvvvv------------|------------ 
-|--2--2---------------------------------------------------------|------------ 
-|--0--0---------------------------------------------------------|------------ 
-|---------------------------------------------------------------|------------ 
 G1 Yeah    (hold bend----|)                  I've got a feeling               
 
-|---------------------------------------------------------------|------------ 
-|--2-------2-------2-------3-------3-------3--------------------|------------ 
-|--2--2----2-------2-------2-------2-------2--------------------|------------ 
-|--2--2----2-------2-------4-------4-------4--------------------|------------ 
-|--0--0---------------------------------------------------------|------------ 
-|---------------------------------------------------------------|------------ 
 G2                                                                            
 
-|----------------------------------------5/---|------------------------------ 
-|--2---2---2h3--3---3---2---2---2h3--3---3/---|------------------------------ 
-|--2---2---2----2---2---2---2---2----2--------|------------------------------ 
-|--2---2---2h4--4---4---2---2---2h4--4--------|------------------------------ 
-|--0------------------------------------------|------------------------------ 
-|---------------------------------------------|------------------------------ 
 G1                    Oh                                                      
 
-|---9---7--5h7------------9--7----------------|------------------------------ 
-|---5---5--5-----5--5-5---5--5--5----5--5-5---|------------------------------ 
-|----------6h7---6--6-6---------6h7--6--6-6---|------------------------------ 
-|---------------------------------------------|------------------------------ 
-|---------------------------------------------|------------------------------ 
-|---------------------------------------------|------------------------------ 
 G2                                                                            
 
-|----------------5-------------------5----5----------5----------------5----|- 
-|-----------3----3-------2--2h3-3----5----5--2h3-3---5-----2--2h3-3---5----|- 
-|----2--2-----------0----2--2---2-2----------2---2-2----2--2--2-----2---0--|- 
-|-2--2--2h4---4-------2--2--2h4---4----2-----2h4--------2--2--2h4----------|- 
-|-0-------------------0----------------0----------------0------------------|- 
-|--------------------------------------------------------------------------|- 
 G1 Oh please believe me I'd hate to miss the train oh yea   oh yeah           
 
-|--------------------------------------------------------------------------|- 
-|-2--2--2h3--3---3----2--2--2h3--3--3--2--2--2h3--3--3--2--2--2h3--3--3----|- 
-|-2--2--2----2---2--0-2--2--2----2--2--2--2--2----2--2--2--2--2----2--2----|- 
-|-2--2--2h4--4---4----2--2--2h4--4--4--2--2--2h4--4--4--2--2--2h4--4--4----|- 
-|--------------------------------------------------------------------------|- 
-|--------------------------------------------------------------------------|- 
 G2                                                                            
 
-|----------------5-----------------5-----5---------5------5---5----5-------|- 
-|-----------3----3-------------3---5-----5--2h3-3--5------2---2----2-------|- 
-|----2--2-----2--------2---2---2------------2---2---------2---2----2-------|- 
-|----2--2h4------------2---2h4-4--------------------------2---2----2-------|- 
-|-0----------------0-0---------------0-0------------------0---0----0-------|- 
-|--------------------------------------------------------------------------|- 
 G1 And if you leave me I won't be late again no no  no    oh no               
 
-|--------------------------------------------------------------------------|- 
-|-2--2--2h3--3---3---2--2--2h3--3--3--2--2--2h3--3--3--2--2--2h3--3--3-----|- 
-|-2--2--2----2---2---2--2--2----2--2--2--2--2----2--2--2--2--2----2--2-----|- 
-|-2--2--2h4--4---4---2--2--2h4--4--4--2--2--2h4--4--4--2--2--2h4--4--4-----|- 
-|--------------------------------------------------------------------------|- 
-|--------------------------------------------------------------------------|- 
 G2                                                                            
 
-|-----------------------------------------------------------------------|---- 
-|-----------------------------------------------------------------------|---- 
-|--7b9-7b9-7b9-7b9-7b9-7b9-7b9-7b9-7b9-7b9vvvvvvvvvvvvvvvvvvvvvv--------|---- 
-|-----------------------------------------------------------------------|---- 
-|-----------------------------------------------------------------------|---- 
-|-----------------------------------------------------------------------|---- 
 G1 Ah____________________________________________ oh I've got a feeling       
 
-|-----------------------------------------------------------------------|---- 
-|--2-2-2-2-2-2-2-2-2-2-2-2-2-2-2-2-3-3-3-3-3-3-3-3-3--------------------|---- 
-|--2-2-2-2-2-2-2-2-2-2-2-2-2-2-2-2-2-2-2-2-2-2-2-2-2--------------------|---- 
-|-----------------------------------------------------------------------|---- 
-|-----------------------------------------------------------------------|---- 
-|-----------------------------------------------------------------------|---- 
 G2                                                                            
 
-|-----------------------------------5------5------------5----5----------5--|- 
-|--2----2----3----3---2----2----3---5------5-------3----5----5------3---5--|- 
-|--2----2----2----2---2----2----2--------------2----------------2----------|- 
-|--2----2----4----4---2----2----4-------2------2h4---4----2-----2h4---4----|- 
-|--0----0-------------0----0------------0-----------------0----------------|- 
-|--------------------------------------------------------------------------|- 
 G1          Wooh               mmmm            oh yea                         
 
-|----9---7---5h7--5-----9---7---5h7--5----9---7---5h7--5---9---7---5h7--5--|- 
-|----5---5---5----5-----5---5---5----5----5---5---5----5---5---5---5----5--|- 
-|------------6h7----------------6h7---------------6h7--------------6h7-----|- 
-|--------------------------------------------------------------------------|- 
-|--------------------------------------------------------------------------|- 
-|--------------------------------------------------------------------------|- 
 G2                                                                            
 
-|-----------------------------------------------------------------------|---- 
-|-----------------------------------------------------------------------|---- 
-|-----------------------------------------------------------------------|---- 
-|-2---2---2---2---2---2---2---2---5---5---5---5---5---5---5---5---------|---- 
-|-2---2---2---2---2---2---2---2---5---5---5---5---5---5---5---5---------|---- 
-|-0---0---0---0---0---0---0---0---3---3---3---3---3---3---3---3---------|---- 
 G1 I don't understand...told me  why I'd want to sing like Milli Vanilli      
 
-|-----------------------------------------------------------------------|---- 
-|-----------------------------------------------------------------------|---- 
-|-----------------------------------------------------------------------|---- 
-|-2---2---2---2---2---2---2---2---5---5---5---5---5---5---5---5---------|---- 
-|-2---2---2---2---2---2---2---2---5---5---5---5---5---5---5---5---------|---- 
-|-0---0---0---0---0---0---0---0---3---3---3---3---3---3---3---3---------|---- 
 G2                                                                            
 
-|------------------------------------------------------------------|--------- 
-|------------------------------------------------------------------|--------- 
-|--7----7----7----7----7----7----7----7---------7b9vvvvvvvvvvvvvv--|--------- 
-|--7----7----7----7----7----7----7----7----------------------------|--------- 
-|--5----5----5----5----5----5----5----5----------------------------|--------- 
-|------------------------------------------------------------------|--------- 
 G1 All I ever wanted was somebody who looked like you      you oh             
 
-|------------------------------------------------------------------|--------- 
-|------------------------------------------------------------------|--------- 
-|--7----7----7----7----7----7----7----7----------------------------|--------- 
-|--7----7----7----7----7----7----7----7----------------------------|--------- 
-|--5----5----5----5----5----5----5----5----------------------------|--------- 
-|------------------------------------------------------------------|--------- 
 G2                                                                            
 
-|--------------------------------------------------------------------------|- 
-|--2--2---3---3------2--2--2h3-3-----3--2--2--2h3-3-----3--2--2--2h3-3--3--|- 
-|--2--2---2---2------2--2--2---2-----2--2--2--2---2-----2--2--2--2---2--2--|- 
-|--2--2---4---4------2--2--2h4-4-----4--2--2--2h4-4-----4--2--2--2h4-4--4--|- 
-|--0--0--------------0--0---------------0--0---------------0--0------------|- 
-|--------------------------------------------------------------------------|- 
 G1 I've got a feeling that keeps me on my toes oh yea     oh yea              
 
-|--------------------------------------------------------------------------|- 
-|--2--2--2h3-3--3-0--2--2--2h3-3-x-x-3--2--2--2h3-3-x-x-3--2--2--2h3-3--3--|- 
-|--2--2--2---2--2-0--2--2--2---2-x-x-2--2--2--2---2-x-x-2--2--2--2---2--2--|- 
-|--2--2--2h4-4--4-0--2--2--2h4-4-x-x-4--2--2--2h4-4-x-x-4--2--2--2h4-4--4--|- 
-|--------------------------------------------------------------------------|- 
-|--------------------------------------------------------------------------|- 
 G2                                                                            
 
-|---------------5------------------------------------------------------------ 
-|-2--2--2h3-3---5---2--2----------5-5-2-2---2-2------2--2-----------3-------- 
-|-2--2--2-----------2--2--------------2-4p2-2-2------2--2--2---2-2--2-------- 
-|-2--2--2h4---4-----2--2--4p2p0-4-----2-2---2-2h4p2--2--2--2h4--------------- 
-|-0--0--------------0--0--------------0-0---0-0------0--0-------------------- 
-|---------------------------------------------------------------------------- 
 G1 I've got a feeling I think that everybody knows  oh yea     oh yea         
 
-|--------------------------------------------------------------------------|- 
-|-2--2--2h3-3--3-0--2--2--2h3-3--3---2--2--2h3-3--3--2--2--2h3-3-x-x-3-x-x-|- 
-|-2--2--2---2--2-0--2--2--2---2--2---2--2--2---2--2--2--2--2---2-x-x-2-x-x-|- 
-|-2--2--2h4-4--4-0--2--2--2h4-4--4---2--2--2h4-4--4--2--2--2h4-4-x-x-4-x-x-|- 
-|--------------------------------------------------------------------------|- 
-|--------------------------------------------------------------------------|- 
 G2                                                                            
 
-|-------------------------------------------------------------------|-------- 
-|--------------------------8-8-8-8----------------------------------|-------- 
-|--7b9--9--9-9-9-9-9-9-9-9-9-9-9-9-9r7-5---5h7-5-5-7b9--9-9-9-9-9-9-|-------- 
-|----------------------------------------7--------------------------|-------- 
-|-------------------------------------------------------------------|-------- 
-|-------------------------------------------------------------------|-------- 
 G1  (hold bend----------------------|)             I got a feeling            
 
-|-------------------------------------------------------------------|-------- 
-|--2------2--------2-------2-------3-------3-------3----------------|-------- 
-|--2------2--------2-------2-------2-------2-------2----------------|-------- 
-|--2------2--------2-------2-------4-------4-------4----------------|-------- 
-|--0------0--------0-------0----------------------------------------|-------- 
-|-------------------------------------------------------------------|-------- 
 G2                                                                            
 
-|--------------------------------------5----|-------------------------------- 
-|--2---2---2h3-3---3---2---2---2h3-3---5----|-------------------------------- 
-|--2---2---2---2---2---2---2---2---2--------|-------------------------------- 
-|--2---2---2h4-4---4---2---2---2h4-4--------|-------------------------------- 
-|--0---0---------------0---0----------------|-------------------------------- 
-|-------------------------------------------|-------------------------------- 
 G1 Yeah            oh                                                         
 
-|---9---7---5h7-5--5-5--9---7---5h7-5--5-5--|-------------------------------- 
-|---5---5---5---5--5-5--5---5---5---5--5-5--|-------------------------------- 
-|-------------------------------------------|-------------------------------- 
-|-------------------------------------------|-------------------------------- 
-|-------------------------------------------|-------------------------------- 
-|-------------------------------------------|-------------------------------- 
 G2                                                                            
 
-|--------5-----------------------------7p5------------5/---------|----------- 
-|--------5----2h3---3---3/-----------------------5----5/---------|----------- 
-|--2----------2-----2-------------x-x-------6h7--6---------------|----------- 
-|--2----------2h4---4-------------x-x-------7----7---------------|----------- 
-|--0---------------------------0---------------------------------|----------- 
-|----------------------------------------------------------------|----------- 
 G1  Everybody had a good year   though we never saw the sun shine             
 
-|---9----7-----5h7--5---5-------9----7-----5h7---5---5-----------|----------- 
-|---5----5-----5----5---5-0-0---5----5-----5-----5---5-----------|----------- 
-|----------------------------------------------------------------|----------- 
-|----------------------------------------------------------------|----------- 
-|----------------------------------------------------------------|----------- 
-|----------------------------------------------------------------|----------- 
 G2                                                                            
 
-|--------------------------5/---------7/9-----7-----5\---------|------------- 
-|--------------------------5/---------x-------------5\---------|------------- 
-|-------6h7p6-----x--x--x-------------7/9----------------------|------------- 
-|-------7---------x--x--x--------------------------------------|------------- 
-|--------------------------------------------------------------|------------- 
-|--5---------------------------/5------------------------------|------------- 
 G1  Everybody had a wet dream, making temple was a good time oh               
 
-|----9----7-----5-7---5--5------9----7-----5-7--5-----------|---------------- 
-|----5----5-----5-----5--5------5----5-----5-5--5-----------|---------------- 
-|----------------------------6------------------------------|---------------- 
-|--------------------------7--------------------------------|---------------- 
-|-----------------------------------------------------------|---------------- 
-|-----------------------------------------------------------|---------------- 
 G2                                                                            
 
-|--------------------5----------------------------|-------------------------- 
-|--------------------5----------------------------|-------------------------- 
-|--------7p6----6--------------6h7---7---6---6----|-------------------------- 
-|-----------------7------------7-----7-------7----|-------------------------- 
-|------------------------------x-----x-------x----|-------------------------- 
-|--5--5--------------------5---5-----5-------5----|-------------------------- 
 G1 Yeah     oh yeah    oh yeah                                                
 
-|-------------------------------------------------|-------------------------- 
-|---------2-------------------------0-------------|-------------------------- 
-|---------2-------------------------0------2------|-------------------------- 
-|---------2---------------------0h2----0h2--------|-------------------------- 
-|-------------------------------------------------|-------------------------- 
-|-------------------------------------------------|-------------------------- 
 G2                                                                            
 
-|-----------------------------------7p5------5----/--\----|------------------ 
-|----------------------------------------5h7---5--/--\----|------------------ 
-|--6-----6h7------7------9\-------------------------------|------------------ 
-|--7-----7--------7------7\-------------------------------|------------------ 
-|--x-----x--------x---------------------------------------|------------------ 
-|--5-----5--------5-----------5--5------------------------|------------------ 
 G1 Everybody made a movie      everybody had one line                         
 
-|-------5--7--5----------------------------------5h7p5----|------------------ 
-|-------5--5--5----------------------5-----------------5--|------------------ 
-|-----------------------7p6---6--6h7----------------------|------------------ 
-|-----------------------7---7-----------------------------|------------------ 
-|--5h7----------------------------------------------------|------------------ 
-|---------------------------------------------------------|------------------ 
 G2                                                                            
 
-|----------7p5------5--7/9\-------------5--5------5---5/------|-------------- 
-|---------------5h7----x----------------5--5------5---5/------|-------------- 
-|----x--x--------------7/9\-------x--x--------6h7-------------|-------------- 
-|----x--x-------------------------x--x------------------------|-------------- 
-|-------------------------------------------------------------|-------------- 
-|-5----------------------------5------------------------------|-------------- 
 G1 Everybody misses  Andy      we'll be seeing him in no time oh              
 
-|-------------------------------------------------------------|-------------- 
-|---------------------5---5-----------------------------------|-------------- 
-|---------------------6---6------6----------------------------|-------------- 
-|---------------------7---7------7----------------------------|-------------- 
-|--------------------------------7----------------------------|-------------- 
-|-----------------------------5-------------------------------|-------------- 
 G2                                                                            
 
-|------------------------------------------------|--------------------------- 
-|-----------5----5----5----5---5---5----5----5---|--------------------------- 
-|------6----6h7--7----7----6---6---6h7--7----7---|--------------------------- 
-|--7---7----7----7----7----7---7---7----7----7---|--------------------------- 
-|--x---x----x----x----x----x---x---x----x----x---|--------------------------- 
-|--5---5----5----5----5----5---5---5----5----5---|--------------------------- 
 G1 Yeah   oh yeah    oh yea                                                   
 
-|------------------------------------------------|--------------------------- 
-|------2----2h3-3---3-3--------2---2h3--3--3--3--|--------------------------- 
-|------2----2---2---2-2--------2---2----2--2--2--|--------------------------- 
-|------2----2h4-4---4-4--------2---2h4--4--4--4--|--------------------------- 
-|------------------------------------------------|--------------------------- 
-|------------------------------------------------|--------------------------- 
 G2                                                                            
 
-|-----------------------------------------------------|---------------------- 
-|--5--5--5---5--5--5--5--5--5--5--5--5----------------|---------------------- 
-|--6--6--7b9-9--9--9--9--9--9--9--9--9vvvvvvvv--------|---------------------- 
-|--7--7-----------------------------------------------|---------------------- 
-|--x--x-----------------------------------------------|---------------------- 
-|--5--5-----------------------------------------------|---------------------- 
 G1 Woh    (hold bend-----------------|)I got a feeling                        
 
-|-----------------------------------------------------|---------------------- 
-|--2----2----2----2----3----3----3--------------------|---------------------- 
-|--2----2----2----2----2----2----2--------------------|---------------------- 
-|--2----2----2----2----4----4----4--------------------|---------------------- 
-|--0----0----0----0-----------------------------------|---------------------- 
-|-----------------------------------------------------|---------------------- 
 G2                                                                            
 
-|----------------------------------------------------|----------------------- 
-|--2----2----2h3--3----3----2----2----2h3--3----3----|----------------------- 
-|--2----2----2----2----2----2----2----2----2----2----|----------------------- 
-|--2----2----2h4--4----4----2----2----2h4--4----4----|----------------------- 
-|--0----0-------------------0----0-------------------|----------------------- 
-|----------------------------------------------------|----------------------- 
 G1 Yeah                oh                                                     
 
-|----9----7----5h7--5---5-5---9----7----5h7--5--5-5--|----------------------- 
-|----5----5----5----5---5-5---5----5----5----5--5-5--|----------------------- 
-|----------------------------------------------------|----------------------- 
-|----------------------------------------------------|----------------------- 
-|----------------------------------------------------|----------------------- 
-|----------------------------------------------------|----------------------- 
 G2                                                                            
 
-|--------------------------------------------------------------------------|- 
-|--2--2----------------------------5----5----5--------------5-----------5/-|- 
-|--2--2--2--------------------------4b6--4b6--4b6-----2-4b6---6r4-2h4p2----|- 
-|--2--2--2h4--4-----------------------------------2h4----------------------|- 
-|--0--0--------------------------------------------------------------------|- 
-|--------------------------------------------------------------------------|- 
 G1 I got a feeling  a feeling deep inside oh yea   oh yea                     
 
-|--9--7--5h7-5-5-5--9--7--5h7-5-5-5--9--7--5h7-5-5-5--9--7--5h7-5--5-5-----|- 
-|--5--5--5---5-5-5--5--5--5---5-5-5--5--5--5---5-5-5--5--5--5---5--5-5-----|- 
-|--------------------------------------------------------------------------|- 
-|--------------------------------------------------------------------------|- 
-|--------------------------------------------------------------------------|- 
-|--------------------------------------------------------------------------|- 
 G2                                                                            
 
-|-------------5---------------------------------------7p5-------------5----|- 
-|---2--2h3-3--5---2--2--2h3-3--3--2--2--2h3-3-------------7-------5h7---7\-|- 
-|---2--2---2------2--2--2---2--2--2--2--2---2---4b6-6-------4h6-6----------|- 
-|---2--2h4-4------2--2--2h4-4--4--2--2--2h4-4------------------------------|- 
-|---0-------------0--0------------0--0-------------------------------------|- 
-|--------------------------------------------------------------------------|- 
 G1 I got a feeling  a feeling I can't hide oh no  woh no                      
 
-|--9--7--5h7-5--5-5--9--7--5h7-5--5-5--9--7--5h7-5--5-5--9--7--5h7-5--5-5--|- 
-|--5--5--5---5--5-5--5--5--5---5--5-5--5--5--5---5--5-5--5--5--5---5--5-5--|- 
-|--------------------------------------------------------------------------|- 
-|--------------------------------------------------------------------------|- 
-|--------------------------------------------------------------------------|- 
-|--------------------------------------------------------------------------|- 
 G2                                                                            
 
-|----------------------------------------------------|----------------------- 
-|--2---2---5----5--5--5---5----5--5--5--5vvvvvvvvv---|----------------------- 
-|--2---2---7b9------------7b9------------------------|----------------------- 
-|--2---2---------------------------------------------|----------------------- 
-|--0---0---------------------------------------------|----------------------- 
-|----------------------------------------------------|----------------------- 
 G1 Yeah    (hold bend--|) (hold bend--|)I got a feeling                       
 
-|----------------------------------------------------|----------------------- 
-|--2----2-----2-----2-----3----3----3----------------|----------------------- 
-|--2----2-----2-----2-----2----2----2----------------|----------------------- 
-|--2----2-----2-----2-----4----4----4----------------|----------------------- 
-|--0----0-----0-----0--------------------------------|----------------------- 
-|----------------------------------------------------|----------------------- 
 G2                                                                            
 
-|------------------------------------------------------------|--------------- 
-|--5--------------2---2h3--3-----2---2h3--3----2---2h3--3----|--------------- 
-|--7b9vvvvvvvvv---2---2----2-----2---2----2----2---2----2----|--------------- 
-|-----------------2---2h4--4-----2---2h4--4----2---2h4--4----|--------------- 
-|-----------------0--------------0-------------0-------------|--------------- 
-|------------------------------------------------------------|--------------- 
 G1 Yeah         yeah     yeah             ooh          yeah                   
 
-|--9--7---5------------9--9--9-------------------------------|--------------- 
-|--5--5---5----5-------5--5--5-------------------------------|--------------- 
-|---------6h7--6---------------------------------------------|--------------- 
-|------------------------------------------------------------|--------------- 
-|-----------------7------------------------------------------|--------------- 
-|-----------------5------------------------------------------|--------------- 
 G2                                                                            
 
-|---------------------------------------------------||----------------------- 
-|--5-----------5-----5-----5----5----5^-------------||----------------------- 
-|--7b9------9--r--9--r-8--r--8--r-8-----------------||----------------------- 
-|---------------------------------------------------||----------------------- 
-|---------------------------------------------------||----------------------- 
-|---------------------------------------------------||----------------------- 
 G1          (gradually release bend) ^pinch harmonic    End                   
 
-|---------------------------------------------------||----------------------- 
-|---------------------------------------------------||----------------------- 
-|---------------------------------------------------||----------------------- 
-|---------------------------------------------------||----------------------- 
-|---------------------------------------------------||----------------------- 
-|---------------------------------------------------||----------------------- 
 G2                                                      End                   
 
 
 

	  

Search Paypal
auto scroll beats size up size down change color hide chords drawings
tab show chords e-chords YouTube Clip e-chords hide all tabs e-chords go to top tab