Pearl Jam

home > Pearl Jam

Indifference Tab

Pearl Jam

Difficulty: EasyEasy

tuner correct add songbook print version text version save to e-mail
chordsukulelecavacokeyboardtabbassdrumsharmonicsflute Guitar Pro
chords

Indifference

Year: 1993 - Album: Live: 07-11-03 Mansfield, MA

  		 
bass: 
|-----7-(harm.)-------5-(harm.)--------------------------------------- 
|-------7-(harm.)-------5-(harm.)------------------------------------- 
|-0-7-------------0-5------------------------------------------------- 
|--------------------------------------------------------------------- 
 
guitar fills: 
a:				   b: 
|-12-10-------------------|---------15--------------15---------------- 
|-------12-10-------------|--17p15----17p15--17p15----17p15--15-15-17- 
|-------------11-12/14-12-|-------16-------16-----16-------16--------- 
|-------------------------|------------------------------------------- 
|-------------------------|------------------------------------------- 
|-------------------------|------------------------------------------- 
 
b (cont.):	  c (this is played at the end, the notes are the same 
			but I'm not sure they are in the right order): 
|------------|----15-------15-------15----15------15------------------ 
|--19b-15-17-|------------------------------15-------15--------------- 
|------------|-12----12-12----12-12----12------12-------12------------ 
|------------|-------------------------------------------------------- 
|------------|-------------------------------------------------------- 
|------------|-------------------------------------------------------- 
 
 

	  

Search Paypal
auto scroll beats size up size down change color hide chords drawings
tab show chords e-chords YouTube Clip e-chords hide all tabs e-chords go to top tab