Pearl Jam

I am Mine

Pearl Jam

tabs Advanced advanced

by  DANUCALOV

save to print version add songbook text version e-mail correct tuner
chordsukulelecavacokeyboardtabbassdrumsharmonicaflute Guitar Pro
close

there isn't a video lesson for this song

chords

I am Mine

	  		 
Fill 1       
  (guitarra 1) 
E|-0-0-0-0-0-0-0-0-0-0-0-0-0-0-0-0-0-0-0-0-0-0-0-0-0--------------------------------| 
B|-3-6-8-6-5-6-5-5-3-6-8-6-5-6-5-5-3-6-8-6-5-6-5-5-2--------------------------------| 
G|-2-5-7-5-4-5-4-0-2-5-7-5-4-5-4-0-2-5-7-5-4-5-4-0-2--------------------------------| 
D|-------------------------------------------------2--------------------------------| 
A|----------------------------------------------------------------------------------| 
E|----------------------------------------------------------------------------------| 
 |(guitarra 2)                                                                        | 
E|-----------------0-0-----0-0-----0-0-----0-0-----0--------------------------------| 
B|-----------------3-6-----5-6-----3-6-----5-6-----2--------------------------------| 
G|-----------------2-5-----4-------2-5-----4-5-----2--------------------------------| 
D|-------------------------------------------------2--------------------------------| 
A|----------------------------------------------------------------------------------| 
E|----------------------------------------------------------------------------------| 
 
Rhy. Fig. 1                             Fill 2 
(guitarra 1)                              (guitarra 2) 
E|-------------------------|||----||    --------------------------------------------| 
B|--3----------------------|||----||    --------------------------------------------| 
G|----4----2-4-5-2-4b-2-4--|||--0-||    --------------------------------------------| 
D|------5------------------|||----||    --------------------------------------------| 
A|-------------------------|||----||    ----3--2--0--2------------------------------| 
E|-------------------------|||----||    ----------------3---------------------------| 
 
Fill 3                             Fill 4 
 
E|--0--0--0--0--0--0--0--0--0-||   --0--0--0--0--0--0-||-0-0-0-0-0-0-0-0-0--------0-| 
B|--3--6--5--6--3--6--5--6--2-||   --3--6--8--6--3--1-||-3-6-8-6-3-6-8-6-3--------2-| 
G|--2--5--4--5--2--5--4--5--2-||   --2--5--7--5--2--0-||-2-5-7-5-2-5-7-5-2--------2-| 
D|--------------------------2-||   -----------------2-||--------------------------2-| 
A|----------------------------||   -----------------3-||----------------------------| 
E|----------------------------||   -----------------3-||----------------------------| 
 
Solo: 
             G           Am                  D                    G 
E|----15----------------------------------------------------------------------------| 
B|-15----15----------------------------------------------------15-------------------| 
G|-----------14b(16)-(16)-(16bd)-12----12h14-14----14-12-12h14----14b-12------------| 
D|----------------------------------14----------14----------------------------------| 
A|----------------------------------------------------------------------------------| 
E|----------------------------------------------------------------------------------| 
    Am                         D                    G              Am 
E|--------------------------------15----15----15----15-15-15-15-15-15-12------------| 
B|-----------------------------------15----15----15-15-15-15-15-15-15-12------------| 
G|--14b(16)(14)-12----12h14-12h14---------------------------------------------------| 
D|-----------------14---------------------------------------------------------------| 
A|----------------------------------------------------------------------------------| 
E|----------------------------------------------------------------------------------| 
       D                          
E|----------------------------------------------------------------------------------| 
B|----------------------------------------------------------------------------------| 
G|--14-14b-12----12------12--12h14---16---12h14--12---------------------------------| 
D|------------14------14------------------------------------------------------------| 
A|----------------------------------------------------------------------------------| 
E|----------------------------------------------------------------------------------| 
		  

Full key step upFull key step up
Half key step upHalf key step up
Half key step downHalf key step down
Full key step downFull key step down
hide glossary

See also:

tabs Alice in Chains - Again tabs Nirvana - Come as You Are (Completa) tabs Nirvana - All apoligies (Ver.2) tabs Pearl Jam - Given to Fly tabs Nirvana - Love Buzz tabs Nirvana - Plateau
e-chords

Other versions:

tabs Pearl Jam - I am Mine tabs Pearl Jam - I am mine (Ver. 2)
auto scroll beats size up size down change color hide chords drawings
tab show chords e-chords YouTube Clip e-chords hide all tabs e-chords go to top tab

share