Pearl Jam

home > Pearl Jam

Happy When I'm Crying Tab

Pearl Jam

Difficulty: nolevelnolevel

tuner correct add songbook print version text version save to e-mail
chordsukulelecavacokeyboardtabbassdrumsharmonicsflute Guitar Pro
chords

Happy When I'm Crying

  		 
-|------------------|-----------------------------------------------------|--- 
-|------------------|--------------13-----15-13-15-13---------------------|--- 
-|-9---9--7---7--5--|-------12-14-----14--------------14--14-12-14--------|--- 
-|-x---x--x---x--x--|-14-14----------------------------------------14-12--|--- 
-|-7---7--5---5--3--|-----------------------------------------------------|--- 
-|------------------|-----------------------------------------------------|--- 
 Intro, G1        4x G2                                                        
 
-|------------------|-------------|-1----|------------------|----------------- 
-|------------------|-------------|-1----|------------------|----------------- 
-|-9---9--7---7--5--|-------------|-2----|-9---9--7---7--5--|----------------- 
-|-x---x--x---x--x--|-3---3-------|-3----|-x---x--x---x--x--|----------------- 
-|-7---7--5---5--3--|-x---x--0-3--|-3----|-7---7--5---5--3--|----------------- 
-|------------------|-1---1-------|-1----|------------------|----------------- 
 Verse, G1        4x G1         4x G2      G1             4x                   
 
-|-------------|--1---|-----------------------------|-----------------|------- 
-|-------------|--1---|-----------------------------|-----------------|------- 
-|-------------|--2---|-----------------------------|-----------------|------- 
-|-3---3-------|--3---|-7--7--7--7-5--7--7--7-5-7-5-|-7--7--7--7-5-7--|------- 
-|-x---x--0-3--|--3---|-0--0--0--0-0--0--0--0-0-0-0-|-0--0--0--0-0-0--|------- 
-|-1---1-------|--1---|-----------------------------|-----------------|------- 
 G1          4x G2     Chorus, G1                 4x                           
 
-|------------------|-------------|-1----|------------------|----------------- 
-|------------------|-------------|-1----|------------------|----------------- 
-|-9---9--7---7--5--|-------------|-2----|-9---9--7---7--5--|----------------- 
-|-x---x--x---x--x--|-3---3-------|-3----|-x---x--x---x--x--|----------------- 
-|-7---7--5---5--3--|-x---x--0-3--|-3----|-7---7--5---5--3--|----------------- 
-|------------------|-1---1-------|-1----|------------------|----------------- 
 Verse, G1        4x G1         4x G2     G1 w/Fill 1     4x                   
 
-|-----------13-----15-13-15-13-------------------------|--------------------- 
-|----13-15-----15--------------15--13----13------------|--------------------- 
-|-14----------------------------------14----14-12b13r--|--------------------- 
-|------------------------------------------------------|--------------------- 
-|------------------------------------------------------|--------------------- 
-|------------------------------------------------------|--------------------- 
 Fill 1 (G2)                                                                   
 
-|------------------------------------------------|-13----13-----|------------ 
-|------------------------------------------------|-13h15-13-13--|------------ 
-|------------------------------------------------|----------14--|------------ 
-|-3---3-------3---3-------3---3-------3--3-------|--------------|------------ 
-|-x---x--0-3--x---x--0-3--x---x--0-3--x--x--0-3--|--------------|------------ 
-|-1---1-------1---1-------1---1-------1--1-------|--------------|------------ 
 G1                   W/Fill 2                     Fill 2                      
 
-|-----------------------------|----------------|-----|----------------------- 
-|-----------------------------|----------------|-----|----------------------- 
-|-----------------------------|----------------|-----|----------------------- 
-|-7--7--7--7-5--7--7--7-5-7-5-|-7--7--7--7-5-7-|--7--|----------------------- 
-|-0--0--0--0-0--0--0--0-0-0-0-|-0--0--0--0-0-0-|--0--|----------------------- 
-|-----------------------------|----------------|-----|----------------------- 
 Chorus                      4x                                                
 
-|-------------------|------------------------------------------------------|- 
-|-------------------|------------------------------------------------------|- 
-|-9---9--7---7--5---|--7b-b-8-r-r-7--7b-b-8-r-r-7--7b-b-8r-r-7--7b-b-8r-r7-|- 
-|-x---x--x---x--x---|--/-------------/-------------/------------/----------|- 
-|-7---7--5---5--3---|--/-------------/-------------/------------/----------|- 
-|-------------------|------------------------------------------------------|- 
 Solo Rhythm, G1   8x Solo,G2(1.5 step bend,trem.pick)                         
 
-|------------------|----------------------------|------------|--------------- 
-|------------------|----------------------------|------------|--------------- 
-|-9---9--7---7--5--|----------------------------|------------|--------------- 
-|-x---x--x---x--x--|-3---3-------3---3----------|-3---3------|--------------- 
-|-7---7--5---5--3--|-x---x--0-3--x---x--0-3-----|-x---x--0-3-|--------------- 
-|------------------|-1---1-------1---1----------|-1---1------|--------------- 
  G1              4x  G1                 W/Fill2            2x                 
 
-|------------------|-------------|--1----|----------------------------------- 
-|------------------|-------------|--1----|----------------------------------- 
-|-9---9--7---7--5--|-------------|--2----|----------------------------------- 
-|-x---x--x---x--x--|-3---3-------|--3----|----------------------------------- 
-|-7---7--5---5--3--|-x---x--0-3--|--3----|----------------------------------- 
-|------------------|-1---1-------|--1----|----------------------------------- 
  G1              4x G1         4x G2                                          
 
-|------------------------------|------------------|-------------------------- 
-|------------------------------|------------------|-------------------------- 
-|------------------------------|------------------|-------------------------- 
-|-7--7--7--7-5--7--7--7-5-7-5--|-7--7--7--7-5--7--|-------------------------- 
-|-0--0--0--0-0--0--0--0-0-0-0--|-0--0--0--0-0--0--|-------------------------- 
-|------------------------------|------------------|-------------------------- 
 Chorus, G1                   4x                                               
 
-|------------------------------|------------------|-------------------------- 
-|------------------------------|------------------|-------------------------- 
-|------------------------------|------------------|-------------------------- 
-|-7--7--7--7-5--7--7--7-5-7-5--|-7--7--7--7-5--7--|-------------------------- 
-|-0--0--0--0-0--0--0--0-0-0-0--|-0--0--0--0-0--0--|-------------------------- 
-|------------------------------|------------------|-------------------------- 
 Outro                        6x                    End                        
 
 
_______________________________________________________ 
Contribuição: Henrique Fairbancks([email protected]) 

	  

Search Paypal
auto scroll beats size up size down change color hide chords drawings
tab show chords e-chords YouTube Clip e-chords hide all tabs e-chords go to top tab