Pearl Jam

home > Pearl Jam

Gone Tab

Pearl Jam

Difficulty: AdvancedAdvanced

tuner correct add songbook print version text version save to e-mail
chordsukulelecavacokeyboardtabbassdrumsharmonicsflute Guitar Pro
chords

Gone

Year: 2006 - Album: Pearl Jam

  		Intro: 
------------------------------------------------------------------------------------------------- 
-------------------------------------------------------0--0---0---0------------------------------ 
--4---4--4--4-----------------------4---4--------4---4---------------------4--------4------------ 
--2---2---------2---2----2--4---2-----2-----2------2--------2---2-----2--------2-4----2--2-2---2- 
--3-----------3---3---2-----------2-------2---3---------------------3---2----2---------------2--- 
------------------------------------------------------------------------------------------------- 
 
----------------------------------------------------------------------------------------- 
------------0--0----0-0---0--------------0-----------0---0--0---0---0----0--------------- 
----------4--------------------------------------4-4-4----------------4-----4---4-------- 
-----2--2---------------2------2--4----2---2-----0-0-0--------0---0---2-----2-----2------ 
--3-----3--------3----------2--------------------x-----------------------------------0-0- 
----------------------------------------------3--3--------------------------------------- 
 
Verse: 
------------------------------------------------------------------------------------------------- 
-------------------------------------------------------0--0---0---0------------------------------ 
--4---4--4--4-----------------------4---4--------4---4---------------------4--------4------------ 
--2---2---------2---2----2--4---2-----2-----2------2--------2---2-----2--------2-4----2--2-2---2- 
--3-----------3---3---2-----------2-------2---3---------------------3---2----2---------------2--- 
------------------------------------------------------------------------------------------------- 
V1             No more upset mornings                    no more trying evenings 
               When the gas in my tank                   feels like money in the bank 
V2          In the far off distance                   as my tail lights fade 
               Feel like a question is forming              and the answer's far 
 
----------------------------------------------------------------------------------------- 
------------0--0----0-0---0--------------0-----------0---0--0---0---0----0--------------- 
----------4--------------------------------------4-4-4----------------4-----4---4-------- 
-----2--2---------------2------2--4----2---2-----0-0-0--------0---0---2-----2-----2------ 
--3-----3--------3----------2--------------------x-----------------------------------0-0- 
----------------------------------------------3--3--------------------------------------- 
 
              This American dream I              am                   disbelieving 
              I'm gonna blow it all this time    take me              one last ride  
              No one thinks to witness           but they             will some day 
              I will be what I could be          once I get           out of this town 
 
Pre-Chorus 
-(0)----------0-----------------(0)---------------0---------------------- 
--3-----------2------------------3----------------2---------------------- 
--4-----------2------------------4----------------2---------------------- 
--3-----------2------------------3----------------2---------------------- 
--0-----------0------------------0----------------0---------------------- 
------------------------------------------------------------------------- 
(1)  For the lights of the city   they only look good when I'm speeding 
(2)  For the lights of the city   they have lost all their feeling 
 
 
-(0)-------------------0--------------------- 
--3--------------------2--------------------- 
--4--------------------2--------------------- 
--3--------------------2--------------------- 
--0--------------------0--------------------- 
--------------------------------------------- 
      I want to leave it all behind me 'cause 
 
 
----------------------------------------------------------------------------------- 
----------------------------------------------------------------------------------- 
----------------------------------------------------------------------------------- 
-2----0---0-0-0-0-2--2-2-2-0---0-0-0-0-2--2-2-2-0---0-0-0-0-2--2-2-2-2--2-2--2-2-2- 
-x----x---x-x-x-x-x--x-x-x-x---x-x-x-x-x--x-x-x-x---x-x-x-x-x--x-x-x-x--x-x--x-x-x- 
-3----3---3-3-3-3-3--3-3-3-3---3-3-3-3-3--3-3-3-3---3-3-3-3-3--3-3-3-3--3-3--3-3-3- 
  this time                                        I'm 
 
Chorus: 
---------------------------------------------------------------------------------- 
--5---5-5-5-5--5-5-5-5-5-5-5--5--5-5-5-5--5-5--5-5-5-5--5--5-5-5-5--5-5-5-5-5-5-5- 
--7---7-7-7-6--6-6-6-7-7-6-6--7--7-7-7-6--6-7--6-7-6-6--7--7-7-7-6--6-6-6-6-6-6-6- 
--7---7-7-7-7--7-7-7-7-7-7-7--7--7-7-7-7--7-7--7-7-7-7--7--7-7-7-7--7-7-7-7-7-7-7- 
--0---0-0-0-0--0-0-0-0-0-0-0--0--0-0-0-0--0-0--0-0-0-0--0--0-0-0-0--0-0-0-0-0-0-0- 
---------------------------------------------------------------------------------- 
 Goin'                           I'm gone                 I'm goin' 
 Ohhh                            this time                this time I'm 
 
------------------------------------------------ 
--8---8--8--8--8--8/10-10-10-10-10-10-10-10-10-- 
--9---9--9--9--9--9/11-11-11-11-11-11-11-11-11-- 
-10--10-10-10-10-10/12-12-12-12-12-12-12-12-12-- 
--0---0--0--0--0--0-----0--0--0--0--0--0--0--0-- 
------------------------------------------------ 
  Goin'       for it 
  Gone 

	  

Search Paypal
auto scroll beats size up size down change color hide chords drawings
tab show chords e-chords YouTube Clip e-chords hide all tabs e-chords go to top tab