Pearl Jam

home > Pearl Jam

Falling Down Tab

Pearl Jam

Difficulty: nolevelnolevel

by JR1991

tuner correct add songbook print version text version save to e-mail
chordsukulelecavacokeyboardtabbassdrumsharmonicsflute Guitar Pro
chords

Falling Down

(Pearl jam)

  		

Intro: 

E---0--0-0--0-0----0-0---------  
B---3--3-3--3-3h5--1-0---------  
G---0--0-0--0-0----0-0-0-------  
D---4--4-4--4-4----2-2-2-0h2-0-  
A---5--5-5--5-5----3-3---------  
E---0--0-0--0-0----0-0---------  
  

Há também uma segunda guitarra arrancar seu acorde D padrão no  
fundo 

E ------- 2 ----  
B --- 3 --- 3 ----  
G ----- 2 ------  
D ---------- -  
A ------------  
E ------------  
  

Chorus: 

E---0--0-0--0-0--0-0-0--  
B---0--1-0--0-0--0-0-0--  
G---0--0-0--2-2--2-2-2--  
D---2--2-2--2-2--2-2-2--  
A---2--3-2--0-0--0-0-0--  
E---0--0-0--0-0--0-0-0--  
  

Mais tarde, na canção esta é jogado juntos, juntamente com a introdução: 

E-------------------5/12-----  
B---5-7-8-7--5-7-8------12---  
G----------------------------  
D----------------------------  
A----------------------------  
E---------------------------- 

É misturado e mudou um pouco, mas fica principalmente ao longo destas linhas.  
  

Outro: 

E-----------------  
B-------5---------  
G---5-7---7-5-4---  
D-----------------  
A-----------------  
E----------------- 
	  

Full key step upFull key step up
Half key step upHalf key step up
Half key step downHalf key step down
Full key step downFull key step down
Search Paypal
auto scroll beats size up size down change color hide chords drawings
tab show chords e-chords YouTube Clip e-chords hide all tabs e-chords go to top tab