Pearl Jam

home > Pearl Jam

Comatose Tab

Pearl Jam

Difficulty: ExpertExpert

tuner correct add songbook print version text version save to e-mail
chordsukulelecavacokeyboardtabbassdrumsharmonicsflute Guitar Pro
chords

Comatose

Year: 2006 - Album: Pearl Jam

  		(Crapshoot Rapiture) tab do som ao vivo em 18/03/05 
 
-|---------------------------------------------------------------------------- 
-|---3-------3-----3-----------3-------3-------------------------------------- 
-|---2---2---2-----2--2--------2---2---2-------------------------------------- 
-|---0---2---0-----0--2---2----0---2---0-------------------------------------- 
-|-------0---0--------0---2--------0------------------------------------------ 
-|------------------------0--------------------------------------------------- 
   Intro                                    into Verse 1                       
 
 
-|---------------------------------------------------------------------------- 
-|---------------------------------------------------------------------------- 
-|---------------------------------------------------------------------------- 
-|---9-9-9-9-9--9-8--8-8-8--8-8-8-8------------------------------------------- 
-|---9-9-9-9-9--7-6--8-8-8--8-8-8-8------------------------------------------- 
-|---7-7-7-7-7-------6-6-6--6-6-6-6------------------------------------------- 
                                    Repeat until Chorus                        
 
-|------------------2--------------------------------------------------------- 
-|----3-------3-----3---2-------3------3-------------------------------------- 
-|----2---2---2-----2---2-------2---2--2-------------------------------------- 
-|----0---2---0-----0---2---2---0---2--0-------------------------------------- 
-|--------0---0---------0---2-------0------4-4-4-4--4-4-4-5-5-5-5-5----------- 
-|--------------------------0--------------2-2-2-2--2-2-2-3-3-3-3-3----------- 
   Chorus                                                                      
 
 
-|---------------------------------------------------------------------------- 
-|---------------------------------------------------------------------------- 
-|----------------------10--------------------10------------------------------ 
-|----9----9-8---9----9------9----9-8--9----9--------------------------------- 
-|-------9----------9-----------9---------9----------------------------------- 
-|---------------------------------------------------------------------------- 
 Interlude G1                                                                           
 
-|---------------------------------------------------------------------------- 
-|----------------------10---------------------10----------------------------- 
-|---12-11-9-7--12-11-9-----12-11-9-7--12-11-9-------------------------------- 
-|---------------------------------------------------------------------------- 
-|---------------------------------------------------------------------------- 
-|---------------------------------------------------------------------------- 
 Interlude   G2                              into Verse 2, then Chorus 2      
 
-|------------------------------------|--------------------------------|------ 
-|------------------------------------|--------------------------------|------ 
-|------------------------------------|--------------------------------|------ 
-|------------------------------------|--------------------------------|------ 
-|------------------------------------|--------------------------------|------ 
-|----2-2-2--3-3-3--5-5-5-5--5-5-5-5--|--0-0-0-2-2-2--3-3-3-3--3-3-3-3-|------ 
 Post chorus 2                     2x                               2x          
 
-|---------------------------------------------------------------------------- 
-|---------------------------------3*----------------------------------------- 
-|---------------------------------2*----------------------------------------- 
-|---------------------------------0*----7---7-7-7-7--7-7-7-7--7-7-7-7-------- 
-|---------------------------------------5---5-5-5-5--5-5-5-5--5-5-5-5-------- 
-|--2-2-2--3-3-3--5-5-5-5-5-5-5-5--------------------------------------------- 
                                  *G1                   Into solo w/ Verse     
 
-|-----------------|---------------|------------------------------------------ 
-|-----------------|---------------|------3-------3--------------------------- 
-|-----------------|---------------|------2---2---2vv------------------------- 
-|-----------------|---------------|------0---2---0--------------------------- 
-|-----------------|---------------|----------0---0--------------------------- 
-|-----------------|---------------|------------------------------------------ 
   Verse             Chorus  2x       end 

	  

Search Paypal
auto scroll beats size up size down change color hide chords drawings
tab show chords e-chords YouTube Clip e-chords hide all tabs e-chords go to top tab