Pearl Jam

home > Pearl Jam

Catholic Boy Tab

Pearl Jam

Difficulty: nolevelnolevel

tuner correct add songbook print version text version save to e-mail
chordsukulelecavacokeyboardtabbassdrumsharmonicsflute Guitar Pro
chords

Catholic Boy

  		 
Essa é uma musica do Jim Carrol como o Pearl Jam . Ela é encontrada 
na trilha sonora do filme "Diario de um Adolescente"  
 
 
-|----------------|----------------------------------------------------------- 
-|--3-3-----------|----------------------------------------------------------- 
-|--2-2--9-9-9-9--|----------------------------------------------------------- 
-|--0-0--9-9-9-9--|----------------------------------------------------------- 
-|-------7-7-7-7--|----------------------------------------------------------- 
-|----------------|----------------------------------------------------------- 
  Intro Gtr.1                                                                  
 
-|-----------------|---------------------------------------------------------- 
-|-----------x--3--|---------------------------------------------------------- 
-|-----------x--2--|---------------------------------------------------------- 
-|--9-9-9-9--x--0--|---------------------------------------------------------- 
-|--7-7-7-7--x-----|---------------------------------------------------------- 
-|-----------------|---------------------------------------------------------- 
 Verse PM--| Gtr.1                                                             
 
-|-----------------|-------------------|-------------------------------------- 
-|-----------x-----|-----------x-------|-------------------------------------- 
-|-----------x--7--|-----------x--7b8--|-------------------------------------- 
-|-----------x--7--|-----------x--7b8--|-------------------------------------- 
-|--7-7-7-7--x--5--|--7-7-7-7--x--5b6--|-------------------------------------- 
-|--5-5-5-5--------|--5-5-5-5----------|-------------------------------------- 
 Gtr.1 PM--|         PM-----|                                                  
 
-|----------------|-------------------|--------------------------------------- 
-|----------x--3--|-------------------|--------------------------------------- 
-|----------x--2--|-------------------|--------------------------------------- 
-|--9-9-9-9-x--0--|--9-9-9-9-9-9-9-9--|--------------------------------------- 
-|--7-7-7-7-x-----|--7-7-7-7-7-7-7-7--|--------------------------------------- 
-|----------------|-------------------|--------------------------------------- 
 Gtr.1 PM--|        PM------------|                                            
 
-|----------------|-----------------------|----------------------------------- 
-|--7-75---10-9--|--7-7-5---5/7-5--------|----------------------------------- 
-|--------7-------|--------7-------6-4----|----------------------------------- 
-|----------------|--------------------7--|----------------------------------- 
-|----------------|-----------------------|----------------------------------- 
-|----------------|-----------------------|----------------------------------- 
  Chorus Gtr.2                                                                 
 
-|---------------------|---------------------|-------------------------------- 
-|--3-3-3-3------------|--3-3-3-3------------|-------------------------------- 
-|--2-2-2-2-9-9-9-9-9--|--2-2-2-2------------|-------------------------------- 
-|--0-0-0-0-9-9-9-9-9--|--0-0-0-0-7-7-7-7-7--|-------------------------------- 
-|----------7-7-7-7-7--|----------7-7-7-7-7--|-------------------------------- 
-|---------------------|----------5-5-5-5-5--|-------------------------------- 
  Gtr.1                                                                        
 
-|-------------------------------------------------------------------|-------- 
-|----------------------------------------------------------------10-|-------- 
-|-----------7--------7--------9p7-9b11r9p7---9b11r9p7---7-9b11----|-------- 
-|-----------7--------7--------7------------9----------9-----------|-------- 
-|--/7-7--------/7-7------/7-7---------------------------------------|-------- 
-|-------7-----------7---------7-------------------------------------|-------- 
  Solo                                                                         
 
-|--------------------------------------------------------------------------|- 
-|--10--10--10--10--10--10--------------------------------------------------|- 
-|--11--11--11--11--11--9b11r9p7-9-7---/7--7p9-7p9-7p9---7-9b11r9p7-9-7---7-|- 
-|-----------------------------------9-/7--------------9----------------9---|- 
-|--------------------------------------------------------------------------|- 
-|--------------------------------------------------------------------------|- 
 Hold Bend---|                                                                 
 
-|----------10p7---10p7---10p7---10p7---10p7---10p7---10p7---7-10-10b12--|---- 
-|------/10------7------7------7------7------7------7------7-------------|---- 
-|--9/-------------------------------------------------------------------|---- 
-|-----------------------------------------------------------------------|---- 
-|-----------------------------------------------------------------------|---- 
-|-----------------------------------------------------------------------|---- 
                                                                               
 
-|--10-7--------------------------------------------|------------------------- 
-|-------10-7----------------------7---7-----7---7--|------------------------- 
-|------------9-7-9b11r9p7-9-7--9--7---7--9--7---7--|------------------------- 
-|-----------------------------------9---------9----|------------------------- 
-|--------------------------------------------------|------------------------- 
-|--------------------------------------------------|------------------------- 
                                                                               
 
-|--------------------------|---------------------------------|--------------- 
-|--10----10-10-10----------|---------------------------------|--------------- 
-|--9b11--11-11-11r9p7---7--|--9b11-9-7h9p7-------------------|--------------- 
-|---------------------9----|---------------9----------------|--------------- 
-|--------------------------|------------------/9-7-9-7-7-5--|--------------- 
-|--------------------------|---------------------------------|--------------- 
  Hold Bend---|           2x                                                   
 
-|------------------|-----------------------|--------------------------------- 
-|--7-7-5---7/10-9--|--7-7-5---5/7-5--------|--------------------------------- 
-|--------7---------|--------7-------6-4----|--------------------------------- 
-|------------------|--------------------7--|--------------------------------- 
-|------------------|-----------------------|--------------------------------- 
-|------------------|-----------------------|--------------------------------- 
                                                                               
 
-|--------------------|------------|-----|------------------------------------ 
-|--------------x--3--|------------|--3--|------------------------------------ 
-|--------------x--2--|------------|--2--|------------------------------------ 
-|--9--9--9--9--x--0--|------------|--0--|------------------------------------ 
-|--7--7--7--7--x-----|------------|-----|------------------------------------ 
-|--------------------|------------|-----|------------------------------------ 
 Rhythm 1st 2 Lines Of Solo Gtr.1    2nd Two Lines Of Solo, Strum.             
 
-|---------------------|----------------------------------------|------------- 
-|--------------x---3--|--3-3-3-3------------3-3-3-3------------|------------- 
-|--------------x---2--|--2-2-2-2-9-9-9-9-9--2-2-2-2------------|------------- 
-|--9--9--9--9--x---0--|--0-0-0-0-9-9-9-9-9--0-0-0-0-7-7-7-7-7--|------------- 
-|--7--7--7--7--x------|----------7-7-7-7-7----------7-7-7-7-7--|------------- 
-|---------------------|-----------------------------5-5-5-5-5--|------------- 
  2nd Last Line of Solo Last Line Of Solo                                      
 
-|-----------|-----------|-----------|-----------|---------------------------- 
-|-----------|-----------|-----------|-----------|---------------------------- 
-|-----------|-----------|-----------|-----------|---------------------------- 
-|--2-2-2-2--|--2-2-2-2--|--2-2-2-2--|--2-2-2-2--|---------------------------- 
-|--2-2-2-2--|--2-2-2-2--|--2-2-2-2--|--2-2-2-2--|---------------------------- 
-|--0-0-0-0--|--0-0-0-0--|--0-0-0-0--|--0-0-0-0--|---------------------------- 
  Bridge Gtr.1                                                                 
 
-|-----------|---------------------------------------------------------------- 
-|-----------|---------------------------------------------------------------- 
-|-----------|---------------------------------------------------------------- 
-|--2-2-2-2--|---------------------------------------------------------------- 
-|--2-2-2-2--|---------------------------------------------------------------- 
-|--0-0-0-0--|---------------------------------------------------------------- 
 Outro Gtr.1     Hope You Understand It All!                                   
 
 
 
_______________________________________________________ 
Contribuição: Vinicius Francisco Alves([email protected]) 

	  

Search Paypal
auto scroll beats size up size down change color hide chords drawings
tab show chords e-chords YouTube Clip e-chords hide all tabs e-chords go to top tab