Pearl Jam

home > Pearl Jam

Around The Bend Tab

Pearl Jam

Difficulty: BeginnerBeginner

tuner correct add songbook print version text version save to e-mail
chordsukulelecavacokeyboardtabbassdrumsharmonicsflute Guitar Pro
chords

Around The Bend

Year: 1996 - Album: No Code

  		  A6	  A6 A7 A  A7 D
E --------------------2--------------
B -7------7--5--2--5--3--------------
G -6------6--6--2--6--2--------------
D -7------7--5--2--5-----------------
A -----------------------------------
E -----------------------------------

Chorus:
D E Bb


From [email protected] 


----------------------------------------------0---2---
-7---5--7---7------5------2------5------3-------------
----------------------------------------------2-------
-7------------7------5------2------5------------------
------------------------------------------------------
------------------------------------------------------







AROUND THE BEND
===============

Pearl Jam - No Code
Track 13

This represents our interpretation of the original artist's work, to be used for personal or educational use only.

Transcibed by Bryce Christensen and Matt Forth.
If you add to this or fix any mistakes, please send us a copy.
[email protected]
(Please email if you are a drummer / bass guitarist near Brisbane interested in jammin'!!!!)


VERSE

E|----------------|----------------|
B|7-------7---7---|5---2---5---3---|
G|6-------6---6---|4---1---4---2---|
D|----------------|----------------|
A|----------------|----------------|
E|----------------|----------------|


"CHORUS"

E|----------------|----------------|
B|3-----3-5---5-3-|--3-------------|
G|2-----2-4---4-2-|--2-------------|
D|----------------|----------------|
A|----------------|----------------|
E|----------------|----------------|



VERSE 1:

I am wishing you a well
Wind at peace within your cell
covers up I cast you off
I'll be watching as you breathe
I sit still you move I send

(chrous) You off around the bend


VERSE 2:

I hold your head deep in my arms
My fingertips they cover your eyes
Off you dream my little child
There's a sun around around

(chorus) There's a sun around the bend


VERSE 3:

All the evenings close like this
All these moments that I've missed
Please forgive me wont you dear
Please forgive and let me share

(chorus) With you around the bend


VERSE 4:

You're an angel when you sleep
How I want your soul to keep

(chorus) On and on around the bend


	  

Search Paypal
auto scroll beats size up size down change color hide chords drawings
tab show chords e-chords YouTube Clip e-chords hide all tabs e-chords go to top tab