Pearl Jam

home > Pearl Jam

Amongst The Waves Tab

Pearl Jam

Difficulty: BeginnerBeginner

by abelamin

tuner correct add songbook print version text version save to e-mail
chordsukulelecavacokeyboardtabbassdrumsharmonicsflute Guitar Pro
chords

Amongst The Waves

  		(só guitarra 1 com capo na 2ª casa) 
(apenas os numeros da tablatura da gtr 1 são relativas ao capo) 

(intro and verse) 

(gtr 1) 
E |---2-------------2---------------2-- 
B |---3------3------3------3--------3-- 
G |---2------0---4--2------0---4----2-- 
D |---0---4--3------0---4--3--------0-- 
A |------------------------------------ 
E |------------------------------------ 

(gtr 2) 
E |---------------------------------------------------- 
B |--9-9-9-9--8-8-8-8--9-9-9-9--8-8-8-8---------------- 
G |--9-9-9-9--9-9-9-9--9-9-9-9--9-9-9-9---------------- 
D |--9-9-9-9--7-7-7-7--9-9-9-9--7-7-7-7---------------- 
A |---------------------------------------------------- 
E |---------------------------------------------------- 

(bridge) 
(gtr 1) 
E |--0--------0---------------------- 
B |--0--------0---------------------- 
G |--0----0---0------0--------------- 
D |--2----4---2------4--------------- 
A |--0----7---0------7--------------- 
E |-------5----------5--------------- 

(gtr 2) 
E |----------------- 
B |----------------- 
G |----------------- 
D |-9----9---------- 
A |-9----9---------- 
E |-7----7---------- 

(pré-Chorus) 
(gtr 1) 
E |--7--------------7----------------7------------------ 
B |--8----7---2-3---8---7---2--3-----8----7---2-3------- 
G |--7----7---2-2---7---7---2--2-----7----7---2-2------- 
D |---9---7---2-2----9--7---2--2------9---7---2-2------- 
A |-----------0-0-----------0--0--------------0-0------- 
E |----------------------------------------------------- 

(gtr 2) 
E |---------------------------------------- 
B |---------------------------------------- 
G |------9-------------9----------9-------- 
D |--7---9---9-----7---9---9---7--9--9----- 
A |--7---7---9-----7---7---9---7--7--9----- 
E |--5-------7-----5-------7---5-----7----- 

(Chorus) 
(gtr 1) 
E |--5----7-----2----------5-----7-----2------------- 
B |--6----8-----3-----2----6-----8-----3------------- 
G |--5----7-----2-----2----5-----7-----2------------- 
D |----7----9-----4---2------7----9-----4------------ 
A |-------------------------------------------------- 
E |-------------------------------------------------- 

(gtr 2) 
E |-------------------------------------------------------- 
B |-------------------------------------------------------- 
G |-12--11---14--13---------8---12--11--14--13------------- 
D |-12--12---14--14---------9---12--12--14--14------------- 
A |-10--12---12--14--9/11---9---10--12--12--14----9/11----- 
E |-----10-------12---------7-------10------12------------- 

(solo) 
(gtr 1) 
(A) C (A) C (A) C (A) C 

(intro and verse) 
What used to be a house of card 
Has turned into a reservoir 

(bridge) 
Saved the tears that we're waterfalling 
Let's go swim tonight, darling 

(verse) 
& once outside the undertow 
Just you & and & nothing more 

(bridge) 
If not for love i would be drowning 
I've see it work both way, but i am up 

(pré-Chorus) 
Riding high amongst the waves 
I can feel like i 
Have a soul that has been saved 
I can feel like i 
Put away my early grave 

(Chorus) 
Gotta say it now 
Better loud 
That too late 

(verse) 
Remember back the early day 
When you were young & thus amazed 

Suddenly the channel changed 
The first time you saw blood 

Cut to later, now you're strong 
You've bled yourself, the wounds are gone 
It's rare when there is nothing wrong 

(bridge) 
Survived & you're amongst the fittest 
Love ain't love until you give it up 

(pré-Chorus) 
Riding high amongst the waves 
I can feel like i 
Have a soul that has been saved 
I can see the light 
Coming through the clouds in rays 

(Chorus) 
Gotta say it now 
Better loud 
That too late 

(solo) 

(pré-Chorus) 
Riding high amongst the waves 
I can feel like i 
Have a soul that has been saved 
I can see the light 
Coming through the clouds in rays 

(Chorus) 
Gotta say it now 
Better loud 
That too late 
	  

Full key step upFull key step up
Half key step upHalf key step up
Half key step downHalf key step down
Full key step downFull key step down
Search Paypal
auto scroll beats size up size down change color hide chords drawings
tab show chords e-chords YouTube Clip e-chords hide all tabs e-chords go to top tab