Pearl Jam

home > Pearl Jam

Alone Tab

Pearl Jam

Difficulty: BeginnerBeginner

tuner correct add songbook print version text version save to e-mail
chordsukulelecavacokeyboardtabbassdrumsharmonicsflute Guitar Pro
chords

Alone

Year: 2003 - Album: Lost Dogs: Rarities and B Sides

  		 
TAB by Brian Broskie 
 
Not sure if it is 100% correct, but I know most of it is. 
 
It's in the key of E 
 
 
Intro:  
 
e----------------- 
b-----------------      
g----------------- 
d---2-2-2-2-2----- 
a---2-2-2-2-2----- 
e---0-0-0-0-0----- 
 
 
 
 
Intro A:  
 
e---7-7-7-7-7-7--- 
b---8-7-8-7-7-8--- 
g---7-7-7-7-7-7--- 
d---9-9-9-9-9-9--- 
a---7-7-7-7-7-7--- 
e----------------- 
 
 
 
 
Main Riff A:  
 
e------------------------------------ 
b------------------------------------ 
g-------------------------------7-9-- 
d------------5-7------7-5---7-9------ 
a--------7-5------7-5-----7---------- 
e--12------------------------------ 
 
 
 
 
 
Main Riff B:  
 
e------------------------------------ 
b------------------------------------ 
g------------------------------------ 
d------------5-7------7-7-7-7-5------ 
a--------7-5------7-5-----------7-5-- 
e-----0------------------------------ 
 
 
Bridge: 
 
e------------------------------------ 
b------------------------------------ 
g--------9-9---7-9-----7-9---9-12-11- 
d--------9-9---7-9-----7-9---9-12-11- 
a--------7-7---5-7-----5-7---7-10--9- 
e---12------0-----0-0-----0--------- 
 
  
 
 
Song Layout: 
 
intro: 1x 
Intro A: 4x 
Main Riff A: 3x 
Main Riff B: 1x 
Main Riff A: 7x 
Main Riff B: 1x 
Intro A: 4x 
Main Riff A: 7x 
Main Riff B: 1x 
Bridge: 4x 
Bridge with guitar solo: 8x (not sure about the rythm at this part, 
                            but it is using the same chords that are 
		            used in the Bridge rythm fig.)    
Intro A: 4x 
 
 
_______________________________________________________ 
Contribuição: Danilo Briscese([email protected]) 

	  

Full key step upFull key step up
Half key step upHalf key step up
Half key step downHalf key step down
Full key step downFull key step down
Search Paypal
auto scroll beats size up size down change color hide chords drawings
tab show chords e-chords YouTube Clip e-chords hide all tabs e-chords go to top tab