Pearl Jam

home > Pearl Jam

All Those Yesterdays Tab

Pearl Jam

Difficulty: BeginnerBeginner

by Apocalyptica

tuner correct add songbook print version text version save to e-mail
chordsukulelecavacokeyboardtabbassdrumsharmonicsflute Guitar Pro
chords

All Those Yesterdays

Year: 1998 - Album: Live: 07-11-03 Mansfield, MA

  		Transcribed by: Evan Cowan 
Email: [email protected] 
 
-|-------------------|-------------------|-------------------|---------------- 
-|-----1---------1---|------3--------5---|-----1---------1---|---------------- 
-|---2-----------1---|------3--------5---|---2-----------1---|---------------- 
-|-3-----3p0---2---2-|----3---3----5---2-|-3-----3p0---2---2-|---------------- 
-|-----------3-------|-/5-------/7-------|-----------3-------|---------------- 
-|-------------------|-------------------|-------------------|---------------- 
 Guit.1, play 24x     Chorus, Guit.1                                           
 
-|-------------------|------------------|------|------------------|-------|--- 
-|------3--------5---|-----6--------8---|------|-----6--------8---|-------|--- 
-|------3--------5---|---7---7----9---9-|---10-|---7---7----9---9-|----10-|--- 
-|----3---3----5---2-|-8-------10-------|------|-8-------10-------|----10-|--- 
-|-/5-------/7-------|------------------|-8----|------------------|-8---8-|--- 
-|-------------------|------------------|------|------------------|-------|--- 
                     Chorus, guit.2                                            
 
-|-------------------|-----------|------------------|---------------------|--- 
-|-----1---------1---|---1----1--|-----3--------5---|-----1-----------1---|--- 
-|---2-----------1---|---2----1--|-----3--------5---|---2---2---------1---|--- 
-|-3-----3p0---2---2-|-----------|---3---3----5---5-|-3-------3p0---2---2-|--- 
-|-----------3-------|-----------|-5-------/7-------|-------------3-------|--- 
-|-------------------|-----------|------------------|---------------------|--- 
 2nd verse, guit.1,-8x Guit.2-8x  2nd Chorus, guit.1                           
 
-|------------------|------------------|---------------|------------------|--- 
-|-----3--------5---|-----6--------8---|------10-------|-----6--------8---|--- 
-|-----3--------5---|---7---7----9---9-|---------10----|---7---7----9---9-|--- 
-|---3---3----5---5-|-8-------10-------|------------10-|-8-------10-------|--- 
-|-5-------/7-------|------------------|-8--8----------|------------------|--- 
-|------------------|------------------|---------------|------------------|--- 
                     2nd Chorus, Guit.2                                        
 
-|-10--|--------------------|-----------------------------|------------------- 
-|-10--|-----1---------1----|-----------------------------|------------------- 
-|-----|---2-----------1----|-----2---------3-------------|------------------- 
-|-----|-3-----3p0---2---2--|-------------3-----------6---|------------------- 
-|-----|-----------3--------|---3---3-3/5-----5/6---6-----|------------------- 
-|-----|--------------------|-1-------------------4-----0-|------------------- 
        Interlude, Guit.1-6  Outro, Guitar 1+2-repeat simile 10x               
 
-|-----------------------------|---------------------------------------------- 
-|-----------------------------|---------------------------------------------- 
-|-----2---------3-------------|---------------------------------------------- 
-|-------------3-----------6---|---------------------------------------------- 
-|---3---3-3/5-----5/6---6-----|---------------------------------------------- 
-|-1-------------------4-----0-|---------------------------------------------- 
 Solo, Guitar 2-repeat till end  Solo, Guitar 1                                
 
-|--------------------------------------------|----------------------------|-- 
-|--------------------------------------------|----------------------------|-- 
-|-10-10-13-10-13-13b15-13-10--10-10-------10-|-10-13-10-13-13b15-13-10-13-|-- 
-|-----------------------------------10-13----|----------------------------|-- 
-|--------------------------------------------|----------------------------|-- 
-|--------------------------------------------|----------------------------|-- 
                                                                               
 
-|--------------------------------------|-------------------------------|----- 
-|--------------------------------------|-------------------------------|----- 
-|-------10-13--10-13b14r13-------10-13-|-10-10-13-10-13-13b15-13-10-13-|----- 
-|-10-13--------------------10-13-------|-------------------------------|----- 
-|--------------------------------------|-------------------------------|----- 
-|--------------------------------------|-------------------------------|----- 
                                                                               
 
-|------------------------------------------------------------|--------------- 
-|------------------------------------------------------------|--------------- 
-|-------10-13--10-13b14r13-------10-13--10-13-13/17-17-17-17-|--------------- 
-|-10-13--------------------10-13-----------------------------|--------------- 
-|------------------------------------------------------------|--------------- 
-|------------------------------------------------------------|--------------- 
                                                                               
 
-|----------------|--------------------------------------|-------------------- 
-|----------------|--------------------------------------|-------------------- 
-|-17/20-20-20-20-|-------10-13--10-13b14r13-------10-13-|-------------------- 
-|----------------|-10-13--------------------10-13-------|-------------------- 
-|----------------|--------------------------------------|-------------------- 
-|----------------|--------------------------------------|-------------------- 
                                                                               
 
-|--------------------------------------------|-------------------------|----- 
-|--------------------------------------------|-------------------------|----- 
-|-10-10-13-10-13-13b15-13-10-13--------10-13-|-10-13b14r13-------10-13-|----- 
-|--------------------------------10-13-------|-------------10-13-------|----- 
-|--------------------------------------------|-------------------------|----- 
-|--------------------------------------------|-------------------------|----- 
                                                                               
 
-|--------------------------------------------------------------------------|- 
-|----------------------------------------------------/21-18----18--18--18\-|- 
-|-10-13-13/17-17-17-17-17/20-20-20-20-20/22-22-22-22--------20-------------|- 
-|--------------------------------------------------------------------------|- 
-|--------------------------------------------------------------------------|- 
-|--------------------------------------------------------------------------|- 
	  

Search Paypal
auto scroll beats size up size down change color hide chords drawings
tab show chords e-chords YouTube Clip e-chords hide all tabs e-chords go to top tab