Pearl Jam

home > Pearl Jam

04/20/02 Tab

Pearl Jam

Difficulty: AdvancedAdvanced

by Faithful

tuner correct add songbook print version text version save to e-mail
chordsukulelecavacokeyboardtabbassdrumsharmonicsflute Guitar Pro
chords

04/20/02

  		 -|---------0----0-0------------0---0-0-0--0-------------0--------------------- 
 -|---7---7-3----3-0---7---7-8--3---0-0-3--0--7---7--7---3----3--0---7--------- 
 -|---0---0-0----0-0---0---0-0--0---0-0-0--0--0---0--0---0----0--0---0--------- 
 -|---7---7-5----5-5---7---7-7--5---5-5-5--5--7---7--7---5----5--5---7--------- 
 -|---------------------------------------------------------------------------- 
 -|---------------------------------------------------------------------------- 
                                                                                
  
 -|---------------------------------------------------------------------------- 
 -|---7--8--0---3----0--0--3--0---7---7-7--3--------0--0--3--0---7------------- 
 -|---0--0--0---0----0--0--0--0---0---0-0--0--------0--0--0--0---0------------- 
 -|---7--7--0---5----5--5--5--5---7---7-7--5--------5--5--5--5---7------------- 
 -|---------------------------------------------------------------------------- 
 -|---------------------------------------------------------------------------- 
                                 So all you fools..                             
  
 -|---------------------------------------------------------------------------- 
 -|--7--0--3-------------3--3--0--3-0--3-3----7---7-5--3----------------------- 
 -|--0--0--0-------------0--0--0--0-0--0-0----0---0-0--0----------------------- 
 -|--7--0--5-------------5--5--5--5-5--5-5----7---7-7--5----------------------- 
 -|---------------------------------------------------------------------------- 
 -|---------------------------------------------------------------------------- 
     sing just like him..                       feel free to do so              
  
 -|---------------------------------------------------------------------------- 
 -|--0--0--3-0---7----7--7--0-0--3---0--0-3-0---7------------------------------ 
 -|--0--0--0-0---0----0--0--0-0--0---0--0-0-0---0------------------------------ 
 -|--5--5--5-5---7----7--7--5-5--5---5--5-5-5---7------------------------------ 
 -|---------------------------------------------------------------------------- 
 -|---------------------------------------------------------------------------- 
     now             cuz he's dead                                              
  
 -|---------------------------------------------------------------------------- 
 -|--------7---------7--------7--7--7-7--7-7-7-------0-0-0-0--0-0--0-0-0-0----- 
 -|--0--0--0---0--0--0---0-0--0--0--0-0--0-0-0--0----0-0-0-0--0-0--0-0-0-0----- 
 -|--7--7--7---7--7--7---7-7--7--7--7-7--7-7-7--7/9--9-9-9-9--9-9--9-9-9-9----- 
 -|---------------------------------------------------------------------------- 
 -|---------------------------------------------------------------------------- 
                                                                                
  
 -|--7--7-7-7--7-7--7--7-7-7--7-7---7--7--7-7--7-7--7-7--7-7--7-7-------------- 
 -|--0--0-0-0--0-0--0--0-0-0--0-0---0--0--0-0--0-0--0-0--0-0--0-0-------------- 
 -|--0--0-0-0--0-0--0--0-0-0--0-0---0--0--0-0--0-0--0-0--0-0--0-0-------------- 
 -|--9--9-9-9--9-9--9--9-9-9--9-9---9--9--9-9--9-9--9-9--9-9--9-9-------------- 
 -|---------------------------------------------------------------------------- 
 -|---------------------------------------------------------------------------- 
                                                                                
  
 -|------------------------------7-9------------------------------7-9---------- 
 -|-------------------------7-7--x-x-------------------------7-7--x-x---------- 
 -|--9-9--9-9--9-9-9-9--9-9-9-9--9-9---9-9-9-9--9-9-9-9--9-9-9-9--9-9---------- 
 -|--9-9--9-9--9-9-9-9--9-9-9-9--9-9---9-9-9-9--9-9-9-9--9-9-9-9--9-9---------- 
 -|---------------------------------------------------------------------------- 
 -|---------------------------------------------------------------------------- 
                     you sing                              using                
  
 -|-----------------------------7-9----------------------7-9------------------- 
 -|------------------------7-7--x-x-----------------7-7--x-x------------------- 
 -|--9-9-9-9--9-9-9-9--9-9-9-9--9-9----9-9-9-9--9-9-9-9--9-9------------------- 
 -|--9-9-9-9--9-9-9-9--9-9-9-9--9-9----9-9-9-9--9-9-9-9--9-9------------------- 
 -|---------------------------------------------------------------------------- 
 -|---------------------------------------------------------------------------- 
                         using         the using takes toll                     
  
 -|-----------------6-6-6-6--6-7-7-7-------------6-6-6-6--6-7-7-7-------------- 
 -|-----------------0-0-0-0--0-0-0-0-------------0-0-0-0--0-0-0-0-------------- 
 -|--0-0-0-0--0-0---0-0-0-0--0-0-0-0---0--0-0-0--0-0-0-0--0-0-0-0-------------- 
 -|--0-0-0-0--0-0---9-9-9-9--9-9-9-9---0--0-0-0--9-9-9-9--9-9-9-9-------------- 
 -|---------------------------------------------------------------------------- 
 -|---------------------------------------------------------------------------- 
                                                                                
  
 -|------------6-6-6-6--6-7-7-7-------------------------9--7------------------- 
 -|------------0-0-0-0--0-0-0-0--------------------7-7--x--x------------------- 
 -|--0--0-0-0--0-0-0-0--0-0-0-0----9--9-9-9-9--9-9-9-9--9--9------------------- 
 -|--0--0-0-0--9-9-9-9--9-9-9-9----9--9-9-9-9--9-9-9-9--9--9------------------- 
 -|---------------------------------------------------------------------------- 
 -|---------------------------------------------------------------------------- 
                                           ???                                  
  
 -|---------------------7--9-----------------------7-9------------------------- 
 -|----------------7-7--x--x-----------------7-7---x-x------------------------- 
 -|---9-9-9-9--9-9-9-9--9--9----9-9-9-9--9-9-9-9---9-9------------------------- 
 -|---9-9-9-9--9-9-9-9--9--9----9-9-9-9--9-9-9-9---9-9------------------------- 
 -|---------------------------------------------------------------------------- 
 -|---------------------------------------------------------------------------- 
      they sung                    ?????                                        
  
 -|--------------6-6-6-6--6-7-7-7---------------6-6-6-6--6-7-7-7--------------- 
 -|--------------0-0-0-0--0-0-0-0---------------0-0-0-0--0-0-0-0--------------- 
 -|--0--0-0-0-0--0-0-0-0--0-0-0-0---0--0-0-0-0--0-0-0-0--0-0-0-0--------------- 
 -|--0--0-0-0-0--9-9-9-9--9-9-9-9---0--0-0-0-0--9-9-9-9--9-9-9-9--------------- 
 -|---------------------------------------------------------------------------- 
 -|---------------------------------------------------------------------------- 
                                                                                
  
 -|--------------6-6-6-6--6-7-7-7---------------------7-9---------------------- 
 -|--------------0-0-0-0--0-0-0-0----------------7-7--x-x---------------------- 
 -|--0--0-0-0-0--0-0-0-0--0-0-0-0---9-9-9-9--9-9-9-9--9-9---------------------- 
 -|--0--0-0-0-0--9-9-9-9--9-9-9-9---9-9-9-9--9-9-9-9--9-9---------------------- 
 -|---------------------------------------------------------------------------- 
 -|---------------------------------------------------------------------------- 
                                                sad to                          
  
 -|--------------------7-9------------------------7-9-------------------------- 
 -|---------------7-7--x-x------------------7-7---x-x-------------------------- 
 -|--9-9-9-9--9-9-9-9--9-9-----9-9-9-9--9-9-9-9---9-9-------------------------- 
 -|--9-9-9-9--9-9-9-9--9-9-----9-9-9-9--9-9-9-9---9-9-------------------------- 
 -|---------------------------------------------------------------------------- 
 -|---------------------------------------------------------------------------- 
              sad to think              sad to think of                         
  
 -|----------------------7-9-------------6-6-6-6--6-7-7-7------------6-6-6-6--- 
 -|------------------7-7-x-x-------------0-0-0-0--0-0-0-0------------0-0-0-0--- 
 -|---9-9-9-9--9-9-9-9-9-9-9----0-0-0-0--0-0-0-0--0-0-0-0---0-0-0-0--0-0-0-0--- 
 -|---9-9-9-9--9-9-9-9-9-9-9----0-0-0-0--9-9-9-9--9-9-9-9---0-0-0-0--9-9-9-9--- 
 -|---------------------------------------------------------------------------- 
 -|---------------------------------------------------------------------------- 
      sad to think of him oh..                                                  
  
 -|--6-7-7-7-------------6-6-6-6--6-7-7-7-------0--0-0-0--0-0-0-0--7--7-7-7-7-- 
 -|--0-0-0-0-------------0-0-0-0--0-0-0-0-------5--5-5-5--5-5-5-5--5--5-5-5-5-- 
 -|--0-0-0-0---0-0-0-0---0-0-0-0--0-0-0-0---0-0-4--4-4-4--4-4-4-4--4--4-4-4-4-- 
 -|--9-9-9-9---0-0-0-0---9-9-9-9--9-9-9-9---0-0-2--2-2-2--2-2-2-2--2--2-2-2-2-- 
 -|---------------------------------------------------------------------------- 
 -|---------------------------------------------------------------------------- 
                                                                                
  
 -|--7-7-7-7--7-7-7-7---------------------------------------------------------- 
 -|--5-5-5-5--5-5-5-5---0---7---7--7---3-------0--0--3--0---7--7-8--3---------- 
 -|--4-4-4-4--4-4-4-4---0---0---0--0---0-------0--0--0--0---0--0-0--0---------- 
 -|--2-2-2-2--2-2-2-2---0---7---7--7---5-------5--5--5--5---7--7-7--5---------- 
 -|---------------------------------------------------------------------------- 
 -|---------------------------------------------------------------------------- 
                              Lost some friend               we all knew        
  
 -|---------------------------------------------------------------------------- 
 -|--0-0--3-0--0-0-3-0--7---7-5--3---0-0--3--0---7---7-7-8--0-3---------------- 
 -|--0-0--0-0--0-0-0-0--0---0-0--0---0-0--0--0---0---0-0-0--0-0---------------- 
 -|--5-5--5-5--5-5-5-5--7---7-7--5---5-5--5--5---7---7-7-7--5-5---------------- 
 -|---------------------------------------------------------------------------- 
 -|---------------------------------------------------------------------------- 
                        always hoped               you'd pull through           
  
 -|------------------------------------------------0-0-0-0--0-0-0--0-0-0-0-0--- 
 -|--3-3-0---7---7-7--0-0--3---3--3-3--3-3-3--3-3--3-3-3-3--3-3-3--3-3-3-3-3--- 
 -|--0-0-0---0---0-0--0-0--0---0--0-0--0-0-0--0-0--0-0-0-0--0-0-0--0-0-0-0-0--- 
 -|--5-5-5---7---7-7--5-5--5---5--5-5--5-5-5--5-5--5-5-5-5--5-5-5--5-5-5-5-5--- 
 -|---------------------------------------------------------------------------- 
 -|---------------------------------------------------------------------------- 
                                                                                
  
 -|---0-0--0-0--0-0-0-0---0-0-0-0-0-0---------------------7-9------------------ 
 -|---3-3--3-3--3-3-3-3---3-3-3-3-3-0----------------7-7--x-x------------------ 
 -|---0-0--0-0--0-0-0-0---0-0-0-0-0-0---9-9-9-9--9-9-9-9--9-9------------------ 
 -|---5-5--5-5--5-5-5-5---5-5-5-5-5-0---9-9-9-9--9-9-9-9--9-9------------------ 
 -|---------------------------------------------------------------------------- 
 -|---------------------------------------------------------------------------- 
                                                   No blame                     
  
 -|---------------------7-9----------------------7-9----------------------7-9-- 
 -|----------------7-7--x-x-----------------7-7--x-x------------------7-7-x-x-- 
 -|---9-9-9-9--9-9-9-9--9-9----9-9-9-9--9-9-9-9--9-9-----9-9-9-9--9-9-9-9-9-9-- 
 -|---9-9-9-9--9-9-9-9--9-9----9-9-9-9--9-9-9-9--9-9-----9-9-9-9--9-9-9-9-9-9-- 
 -|---------------------------------------------------------------------------- 
 -|---------------------------------------------------------------------------- 
                 No blame                   No blame     could be you (?)       
  
 -|-----------------6-6-6-6-6-7-7-7---------------6-6-6-6--6-7-7-7------------- 
 -|-----------------0-0-0-0-0-0-0-0---------------0-0-0-0--0-0-0-0------------- 
 -|---0-0--0-0-0-0--0-0-0-0-0-0-0-0---0--0-0-0-0--0-0-0-0--0-0-0-0------------- 
 -|---0-0--0-0-0-0--9-9-9-9-9-9-9-9---0--0-0-0-0--9-9-9-9--9-9-9-9------------- 
 -|---------------------------------------------------------------------------- 
 -|---------------------------------------------------------------------------- 
                                                                                
  
 -|---------------6-6-6-6--6-7-7-7---------------------7-9--------------------- 
 -|---------------0-0-0-0--0-0-0-0----------------7-7--x-x--------------------- 
 -|---0--0-0-0-0--0-0-0-0--0-0-0-0---9-9-9-9--9-9-9-9--9-9--------------------- 
 -|---0--0-0-0-0--9-9-9-9--9-9-9-9---9-9-9-9--9-9-9-9--9-9--------------------- 
 -|---------------------------------------------------------------------------- 
 -|---------------------------------------------------------------------------- 
                                                using                           
  
 -|-----------------------7-9---------------------7-9---------------------7-9-- 
 -|------------------7-7--x-x----------------7-7--x-x----------------7-7--x-x-- 
 -|---9-9-9-9-9--9-9-9-9--9-9---9-9-9-9--9-9-9-9--9-9---9-9-9-9--9-9-9-9--9-9-- 
 -|---9-9-9-9-9--9-9-9-9--9-9---9-9-9-9--9-9-9-9--9-9---9-9-9-9--9-9-9-9--9-9-- 
 -|---------------------------------------------------------------------------- 
 -|---------------------------------------------------------------------------- 
                   you can't            go on                     using         
  
 -|-----------------6-6-6-6--6-7-7-7--------------------6-6-6-6--6-7-7-7------- 
 -|-----------------0-0-0-0--0-0-0-0--------------------0-0-0-0--0-0-0-0------- 
 -|---0-0--0-0-0-0--0-0-0-0--0-0-0-0----0-0-0--0-0-0-0--0-0-0-0--0-0-0-0------- 
 -|---0-0--0-0-0-0--9-9-9-9--9-9-9-9----0-0-0--0-0-0-0--9-9-9-9--9-9-9-9------- 
 -|---------------------------------------------------------------------------- 
 -|---------------------------------------------------------------------------- 
                                                                                
  
 -|-----------------6-6-6-6--6-7-7-7---0--0-0-0--0-0--0--0-0-0-7--7-7-7-7------ 
 -|-----------------0-0-0-0--0-0-0-0---5--5-5-5--5-5--5--5-5-5-5--5-5-5-5------ 
 -|---0-0--0-0-0-0--0-0-0-0--0-0-0-0---4--4-4-4--4-4--4--4-4-4-4--4-4-4-4------ 
 -|---0-0--0-0-0-0--9-9-9-9--9-9-9-9---2--2-2-2--2-2--2--2-2-2-2--2-2-2-2------ 
 -|---------------------------------------------------------------------------- 
 -|---------------------------------------------------------------------------- 
                                                                                
  
 -|---7-7-7-7--7-7-7-7--7-7-7-7--7-7--7-7-7-7--7-7----------------------------- 
 -|---5-5-5-5--5-5-3-3--3-3-3-3--3-3--3-3-3-3--3-3----7---5---7---3------------ 
 -|---4-4-4-4--4-4-x-x--x-x-x-x--x-x--x-x-x-x--x-x----0---0---0---0------------ 
 -|---2-2-2-2--2-2-2-2--2-2-2-2--2-2--2-2-2-2--2-2----7---5---7---5------------ 
 -|---------------------------------------------------------------------------- 
 -|---------------------------------------------------------------------------- 
                                                                                
  
 -|---------------------------------------------------------------------------- 
 -|---3--0---7---7----7-----3-------3--0---7----7-7---0--3--------------------- 
 -|---0--0---0---0----0-----0-------0--0---0----0-0---0--0--------------------- 
 -|---5--5---7---7----7-----5-------5--5---7----7-7---5--5--------------------- 
 -|---------------------------------------------------------------------------- 
 -|---------------------------------------------------------------------------- 
           so sing just like him     fuckers    it won't offend him             
  
 -|---------------------------------------------------------------------------- 
 -|-----------------7--7--0--3---3-3--0---7---7-8--0-0---3------3-0-3--0---7--- 
 -|---0--0--0---0---0--0--0--0---0-0--0---0---0-0--0-0---0------0-0-0--0---0--- 
 -|---0--5--0---7---7--7--5--5---5-5--5---7---7-7--5-5---5------5-5-5--5---7--- 
 -|---------------------------------------------------------------------------- 
 -|---------------------------------------------------------------------------- 
                   just me                    because he's dead                 
  
 -|--------------------------------------------------------------------0------- 
 -|---7-7--0--5---5-5--5-0--7---7--7-7--0--3---3-3-3--0---7-----7--7-7---7----- 
 -|---0-0--0--0---0-0--0-0--0---0--0-0--0--0---0-0-0--0---0---0----0----------- 
 -|---7-7--5--5---5-5--5-5--7---7--7-7--5--5---5-5-5--5---7-7------7----------- 
 -|---------------------------------------------------------------------------- 
 -|---------------------------------------------------------------------------- 
                                                                                
  
 -|---------------------------------------------------------------------------- 
 -|---7--7---7----------------------------------------------------------------- 
 -|---0--0--------------------------------------------------------------------- 
 -|--------7------------------------------------------------------------------- 
 -|---------------------------------------------------------------------------- 
 -|---------------------------------------------------------------------------- 
 

	  

Search Paypal
auto scroll beats size up size down change color hide chords drawings
tab show chords e-chords YouTube Clip e-chords hide all tabs e-chords go to top tab