Paul McCartney

home > Paul McCartney

Sunshine Sometime Tab

Paul McCartney

Difficulty: nolevelnolevel

by andrsouza

tuner correct add songbook print version text version save to e-mail
chordsukulelecavacokeyboardtabbassdrumsharmonicsflute Guitar Pro
chords

Sunshine Sometime

  		                                                                
Intro 
   Dmaj7                                                         Emaj7 
E|-------------1----------------|-------------1----------------|-------------3----------------| 
B|-----3---------------3--------|-----3---------------3--------|-----5---------------5--------| 
G|---------2---------------2----|---------0-h-2-----------2----|---------4---------------4----| 
D|-3---------------3------------|-3---------------3------------|-5---------------5------------| 
A|------------------------------|------------------------------|------------------------------| 
E|------------------------------|------------------------------|------------------------------| 

                                  Cmaj7 (half bar) 
E|-------------3-h-5-------3----|-------------3----------------|-1-h-3-------1----------------| 
B|-----5---------------0--------|-----1---------------1--------|-----1---------------1--------| 
G|---------4---------------4----|---------1---------------1----|---------1---------------1----| 
D|-5---------------5------------|-1---------------1------------|-1---------------1------------| 
A|------------------------------|------------------------------|------------------------------| 
E|------------------------------|------------------------------|------------------------------| 

Verse 
   Em                                Am                                Dm 
E|-------------0-------0---1---0---|-------------0-------------------|-------------------------0-------| 
B|-------------0-----------0-------|-3---1---3-----------------------|-------------3-------3-------3---| 
G|-----0---------------------------|---------------------2-------2---|-----2---------------------------| 
D|---------2---------------2-------|---------2---------------2-------|---------0---------------0-------| 
A|---------------------------------|-0-------------------------------|-0---------------0---------------| 
E|-0---------------0---------------|-----------------0---------------|---------------------------------| 
               Back    to  where the memory lingers,                               Back    to  where the  
               Home    is  where the water is waiting,                             For     the band that 
               Back    to  where the living is easy,                               I       can heed a  
                
   G               C                 Em                                Am 
E|---------------------------------|-------------0-------0---1---0---|-------------0-------------------| 
B|-0-----------1-------------------|-------------0-----------0-------|-3---1---3-----------------------| 
G|-----0-------0-------0-------0---|-----0---------------------------|---------------------2-------2---| 
D|---------0---------------2-------|---------2---------------2-------|---------2---------------2-------| 
A|-----------------3---------------|---------------------------------|-0-------------------------------| 
E|-3-------------------------------|-0---------------0---------------|-----------------0---------------| 
   sun         shines                            Wavers are  breaking  over my fingers, 
   plays in the sunshine.                        Oh      yeah,         ooh. 
   song in the evening.                          The stars are shining into the water. 
    
   Dm                                G           C 
E|-------------------------0-------|---------------------------------| 
B|-------------3-------3-------3---|-0-----------1-------------------| 
G|-----2---------------------------|-----0-------0-------0-------0---| 
D|---------0---------------0-------|---------0---------------2-------| 
A|-0---------------0---------------|-----------------3---------------| 
E|---------------------------------|-3-------------------------------| 
               Yes, it's been a      long        time. 
               Yes, it's been a      long        time. 
               Yes, it's been a      long        time. 
              
Chorus 
   Am          Dm                 G           C 
E|-0----------------------------|------------------------------| 
B|-1-----------3----------------|-3-----------1----------------| 
G|-----2-------2-------2--------|-----0-------0-------0--------| 
D|---------2---------------0----|---------0---------------2----| 
A|-0---------------0------------|-----------------3------------| 
E|------------------------------|-3----------------------------| 
   Sun-        shine,             some-       time. 

   Am          Dm                 G           C 
E|-0----------------------------|------------------------------|  
B|-1-----------3----------------|-3-----------1----------------|  
G|-----2-------2-------2--------|-----0-------0-------0--------|  
D|---------2---------------0----|---------0---------------2----|  
A|-0---------------0------------|-----------------3------------|  
E|------------------------------|-3----------------------------|  
   Some-       time,              sun-        shine. 



************************************ 
                                     
| h    Hammer-on 
                                     
************************************ 
	  

Full key step upFull key step up
Half key step upHalf key step up
Half key step downHalf key step down
Full key step downFull key step down
Search Paypal
auto scroll beats size up size down change color hide chords drawings
tab show chords e-chords YouTube Clip e-chords hide all tabs e-chords go to top tab