Paul McCartney

home > Paul McCartney

Ode To A Koala Bear Tab

Paul McCartney

Difficulty: nolevelnolevel

by VsWorld

tuner correct add songbook print version text version save to e-mail
chordsukulelecavacokeyboardtabbassdrumsharmonicsflute Guitar Pro
chords

Ode To A Koala Bear

  		
Solo 

e|-----10b12-----10b12-10b12---| 
B|--8---------8----------------| 
G|-----------------------------| 
D|-----------------------------| 
A|-----------------------------| 
E|-----------------------------| 

e|------11------11b12-11-------------| 
B|--9------9-------------13p11h13----| 
G|-----------------------------------| 
D|-----------------------------------| 
A|-----------------------------------| 
E|-----------------------------------| 


e|-----10b12-----10b12-10b12---| 
B|--8---------8----------------| 
G|-----------------------------| 
D|-----------------------------| 
A|-----------------------------| 
E|-----------------------------| 

e|-------------13b14-13b14-13b14u13-11-13b14--11------------| 
B|---9s10------13b14-13b14-13b14u13----13b14-----13---------| 
G|----------------------------------------------------------| 
D|----------------------------------------------------------| 
A|----------------------------------------------------------| 
E|----------------------------------------------------------| 

e|--------------------------------| 
B|---15b17--13--------------------| 
G|---------------16p12------------| 
D|--------------------------------| 
A|--------------------------------| 
E|--------------------------------| 

************************************ 

| h  Hammer-on 
| p  Pull-off 
| b  Bend 
| s  Slide 

************************************ 
	  

Search Paypal
auto scroll beats size up size down change color hide chords drawings
tab show chords e-chords YouTube Clip e-chords hide all tabs e-chords go to top tab