Paul McCartney

home > Paul McCartney

My love Tab

Paul McCartney

Difficulty: BeginnerBeginner

by WhatsBaraNofu

tuner correct add songbook print version text version save to e-mail
chordsukulelecavacokeyboardtabbassdrumsharmonicsflute Guitar Pro
chords

My love

(Paul & Wings McCartney)

Key:  Bb More
My love Key FF
My love Key F#F#
My love Key GG
My love Key G#G#(one step down)
My love Key AA(half step down)
My love Key BbBb(original key)
My love Key BB(half step up)
My love Key CC(one step up)
My love Key C#C#
My love Key DD
My love Key D#D#
My love Key EE
  		Aqui acho que fiz algo que voces vao gostar, tirei essa 
musica em solo, como se fosseum solo dele cantando, peguem 
esse solo e vao acompanhando com o titmo do Paul, isso 
e bom para quem tem banda!! Boa sorte!!! 
 
e|----------------------------------------- 
b|-----------5-5h6-----------5-6h8-6-5----- 
g|-----5-5h7-----------5-5h7-----------5~-- 
d|---8---------------8--------------------- 
a|-8---------------8----------------------- 
E|----------------------------------------- 
 
e|------------------------------------------------------- 
b|----------------------------------6-8b(10)8b(10)8b(10)- 
g|---5-5h7--5-7-8-7-5-----------5-7---------------------- 
d|-7------7-----------8-5/7---7-------------------------- 
a|--------------------------8---------------------------- 
E|------------------------------------------------------- 
                                      (2x)  
e|-------------------------|----------10-10s13----- 
b|-8-6------8b(10)-8-6-----|--11--11--------------- 
g|-------------------------|----------7---7s10--10- 
d|------7~--------------5~-|---8--11--------------- 
a|-------------------------|---------------------8- 
E|-------------------------|----------------------- 
              (2x) 
e|--------------------------------------------|-------- 
b|--------------------------------------------|-------- 
g|-----------3--7-5--5-7s10--9-10-8s9---------|7-5-5s7- 
d|-5-7-5---5--------------------------12-7-5--|-------- 
a|-------8-----------------------------------7|-------- 
E|--------------------------------------------|-------- 
 
e|------------------------------------------- 
b|-------------------10-8-6-5---------------- 
g|-12b(14)12b(14)~10----------7---7s9----10-- 
d|------------------------------8-----10----- 
a|----------------------------------------8-- 
E|------------------------------------------- 
 
e|----------------------------------------------- 
b|----------------------------------------------- 
g|-9-10-12b(14)-12~-------12b(14)--12b(14)--10~-- 
d|------------------12-10------------------------ 
a|----------------------------------------------- 
E|----------------------------------------------- 
 
E isso ae, confiram!!! 

	  

Search Paypal
auto scroll beats size up size down change color hide chords drawings
tab show chords e-chords YouTube Clip e-chords hide all tabs e-chords go to top tab