Paul McCartney

home > Paul McCartney

Let it be Tab

Paul McCartney

Difficulty: ExpertExpert

tuner correct add songbook print version text version save to e-mail
chordsukulelecavacokeyboardtabbassdrumsharmonicsflute Guitar Pro
chords

Let it be

  		 
  F  C/E  G7/D  C  Bb  F/A  G  F  C 
e|-5---3----1----0------------------- 
B|-6---5----3----1--3----1---0-----1- 
G|------------------3----2---0--2--0- 
D|------------------------------3--2- 
A|---------------------------------3- 
E|----------------------------------- 
 
Solo: 
E|-------------------------------------------------12--12-12----------------------------------- 
B|------------5--------5--5-8-5--------------13-13-----------15--15-13------------------------- 
G|-------5------7--7-5----------7---5--12-14---------------------------14---------------------- 
D|---5-7---7----------------------7---------------------------------------14-12-10--10-10-10--- 
A|-7------------------------------------------------------------------------------------------- 
E|--------------------------------------------------------------------------------------------- 
 
E|-10--10-10-10--108--53-----------------------(12)--(10)--------15----17-15----------------- 
B|-10--10-10-10--108--53--------------5-6-5----(12)--(10)--15-17----17-------17-15----------- 
G|--------------------------------5-----------5--------------------------------------17-16-...- 
D|--------------------------7-5-7---7---------------------------------------------------------- 
A|--------------------------------------------------------------------------------------------- 
E|--------------------------------------------------------------------------------------------- 
 
obs: sequencia entre () repetida várias vezes 
 
 
{Intro:} C G Am F C G F C 
 
        C              G                 Am          F 
When I find myself in times of trouble, Mother Mary comes to me 
  C                G              F  C 
Speaking words of wisdom, let it be 
                   G                 Am                F 
And in my hour of darkness, She is standing right in front of me 
  C                G              F  C 
Speaking words of wisdom, let it be 
 
       Am          C/G        F          C 
Let it be, let it be, let it be, let it be 
                   G              F  C 
Speaking words of wisdom, let it be 
 
And when the broken hearted people, Living in the world agree 
There will be an answer, let it be 
But though they may be parted, There is still a chance that they may see 
There will be an answer, let it be 
 
F C/E G7/D C Bb F/A G F C    F C G F C 
 
And when the night is cloudy, There is still a light that shines on me 
Shine on till tomorrow, let it be 
I wake up to the sound of music, Mother Mary comes to me 
Speaking words of wisdom, let it be 
 
_______________________________________________________ 
Contribuição: Sidney Ferreira([email protected]) 
	  

Full key step upFull key step up
Half key step upHalf key step up
Half key step downHalf key step down
Full key step downFull key step down
Search Paypal
auto scroll beats size up size down change color hide chords drawings
tab show chords e-chords YouTube Clip e-chords hide all tabs e-chords go to top tab