Paul McCartney

home > Paul McCartney

Jenny Wren Tab

Paul McCartney

Difficulty: BeginnerBeginner

by billysheers63

tuner correct add songbook print version text version save to e-mail
chordsukulelecavacokeyboardtabbassdrumsharmonicsflute Guitar Pro
chords

Jenny Wren

  		JENNY WREN TABS.Paul Mccartney.(The song is played in C major on a guitar tuned down a whole tone.) 
 
 
 
 Like  so                    sing   but  a   bro   ken   heart   took     a   song      a-way. 
 
--0---------------------------------------------------------------------------------------------- 
-------3---1(p)3-3-1(p)3-1-0-1-----------0----0(p)--1------1------1-------3----3-(p)-----4---4--- 
-----0---0--------------------------2------------------------------------------------------------ 
------------------------------------------------------------------------------------------------- 
--3----3---3-----3-3-----3-3-0------0----0----0-----0------0------0-------0----2-(p)-----3---3--- 
------------------------------------------------------------------------------------------------- 
 
 
 
 
   bridge 
 
 
 how                                                                      day   by   day. 
 
------------------------------------------------------------------------------------------------- 
-8--------8----4------4----6-8-9--6-3-4-6-8-----8---8--4-----4---6-8-9-----6----0----4----------- 
-----0------0-----0-----0-------------------0-----0------0-----0--------------------------------- 
------------------------------------------------------------------------------------------------- 
-7-----7-------3----3------5-7-8--5-2-3-5-7---7-----7--3---3-----5-7-8-----5----2----3----------- 
------------------------------------------------------------------------------------------------- 
 
 
                          end                                    am. 
------------------------------------------------------------------------------------------------- 
--4--3------1---4--3------1---4--4---3-------1---4---4---3-------1------------------------------- 
---------0------------0------------------0------------------0----2------------------------------- 
-----------------------------------------------------------------2------------------------------- 
--3--2---0--0---3--2--0---0---0--0---0-------0---0---0---0--------------------------------------- 
------------------------------------------------------------------------------------------------- 

	  

Full key step upFull key step up
Half key step upHalf key step up
Half key step downHalf key step down
Full key step downFull key step down
Search Paypal
auto scroll beats size up size down change color hide chords drawings
tab show chords e-chords YouTube Clip e-chords hide all tabs e-chords go to top tab