Patent Pending

Cut Copy Paste

Patent Pending

tabs

by  UBIRBOMFIM

save to print version add songbook text version e-mail correct tuner
chordsukulelecavacokeyboardtabbassdrumsharmonicaflute Guitar Pro
close

there isn't a video lesson for this song

chords

Cut Copy Paste

	  		

*** 

*Intro:  
e|---------------------------------------------------------------------------| 
B|---------------------------------------------------------------------------| 
G|-5-55-55-------5-55-55-------5-55-55-------5-55-55-------------------------| 
D|-5-55-55-77-55-5-55-55-77-55-5-55-55-77-55-5-55-55-33-55-------------------| 
A|-3-33-33-77-55-3-33-33-77-55-3-33-33-77-55-3-33-33-33-55-------------------| 
E|---------55-33---------55-33---------55-33---------11-33-------------------| 

*Verse: 
e|---------------------------------------------------------------------------| 
B|---------------------------------------------------------------------------| 
G|-5-55-55-------5-55-55-------5-55-55-------5-55-55-------------------------| 
D|-5-55-55-77-55-5-55-55-77-55-5-55-55-77-55-5-55-55-33-55-------------------| 
A|-3-33-33-77-55-3-33-33-77-55-3-33-33-77-55-3-33-33-33-55-------------------| 
E|---------55-33---------55-33---------55-33---------11-33-------------------| 

e|---------------------------------------------------------------------------| 
B|---------------------------------------------------------------------------| 
G|-5-55-55-------5-55-55-------5-55-55---------------------------------------| 
D|-5-55-55-77-55-5-55-55-77-55-5-55-55-77-55-3-------------------------------| 
A|-3-33-33-77-55-3-33-33-77-55-3-33-33-77-55-3-------------------------------| 
E|---------55-33---------55-33---------55-33-1-(let ring)--------------------| 

*Chorus (downward strum each chord 8 times) 
e|---------------------------------------------------------------------------| 
B|---------------------------------------------------------------------------| 
G|-5-------5-----------5---5-------------------------------------------------| 
D|-5-3-7-5-5-3-7-5-3-5-5-7-5-7-3-5-------------------------------------------| 
A|-3-3-7-5-3-3-7-5-3-5-3-7-3-7-3-5-------------------------------------------| 
E|---1-5-3---1-5-3-1-3---5---5-1-3-------------------------------------------| 

*Intro:  
e|---------------------------------------------------------------------------| 
B|---------------------------------------------------------------------------| 
G|-5-55-55-------5-55-55-------5-55-55-------5-55-55-------------------------| 
D|-5-55-55-77-55-5-55-55-77-55-5-55-55-77-55-5-55-55-33-55-------------------| 
A|-3-33-33-77-55-3-33-33-77-55-3-33-33-77-55-3-33-33-33-55-------------------| 
E|---------55-33---------55-33---------55-33---------11-33-------------------| 

*Verse: 
e|---------------------------------------------------------------------------| 
B|---------------------------------------------------------------------------| 
G|-5-55-55-------5-55-55-------5-55-55-------5-55-55-------------------------| 
D|-5-55-55-77-55-5-55-55-77-55-5-55-55-77-55-5-55-55-33-55-------------------| 
A|-3-33-33-77-55-3-33-33-77-55-3-33-33-77-55-3-33-33-33-55-------------------| 
E|---------55-33---------55-33---------55-33---------11-33-------------------| 

e|---------------------------------------------------------------------------| 
B|---------------------------------------------------------------------------| 
G|-5-55-55-------5-55-55-------5-55-55---------------------------------------| 
D|-5-55-55-77-55-5-55-55-77-55-5-55-55-77-55-3-------------------------------| 
A|-3-33-33-77-55-3-33-33-77-55-3-33-33-77-55-3-------------------------------| 
E|---------55-33---------55-33---------55-33-1-(let ring)--------------------| 

*Chorus (downward strum each chord 8 times) 
e|---------------------------------------------------------------------------| 
B|---------------------------------------------------------------------------| 
G|-5-------5-----------5---5-------------------------------------------------| 
D|-5-3-7-5-5-3-7-5-3-5-5-7-5-7-3-5-------------------------------------------| 
A|-3-3-7-5-3-3-7-5-3-5-3-7-3-7-3-5-------------------------------------------| 
E|---1-5-3---1-5-3-1-3---5---5-1-3-------------------------------------------| 

*Bridge: 
e|---------------------------------------------------------------------| 
B|---------------------------------------------------------------------| 
G|------55------55------55----------------55------55------55-----------| 
D|-3333-55-3333-55-3333-55-7777-5555-3333-55-3333-55-3333-55-7777-5555-| 
A|-3333-33-3333-33-3333-33-7777-5555-3333-33-3333-33-3333-33-7777-5555-| 
E|-1111----1111----1111----5555-3333-1111----1111----1111----5555-3333-| 

e|-------------------------------------------------------------| 
B|-------------------------------------------------------------| 
G|------55------55------55----------------55------55-----------| 
D|-3333-55-3333-55-3333-55-7777-5555-3333-55-3333-55-5555-7----| 
A|-3333-33-3333-33-3333-33-7777-5555-3333-33-3333-33-5555-7----| 
E|-1111----1111----1111----5555-3333-1111----1111----3333-5----| 

*Verse: 
e|---------------------------------------------------------------------------| 
B|---------------------------------------------------------------------------| 
G|-5-55-55-------5-55-55-------5-55-55-------5-55-55-------------------------| 
D|-5-55-55-77-55-5-55-55-77-55-5-55-55-77-55-5-55-55-33-55-------------------| 
A|-3-33-33-77-55-3-33-33-77-55-3-33-33-77-55-3-33-33-33-55-------------------| 
E|---------55-33---------55-33---------55-33---------11-33-------------------| 

e|---------------------------------------------------------------------------| 
B|---------------------------------------------------------------------------| 
G|-5-55-55-------5-55-55-------5-55-55---------------------------------------| 
D|-5-55-55-77-55-5-55-55-77-55-5-55-55-77-55-3-------------------------------| 
A|-3-33-33-77-55-3-33-33-77-55-3-33-33-77-55-3-------------------------------| 
E|---------55-33---------55-33---------55-33-1-(let ring)--------------------| 

*Chorus (downward strum each chord 8 times) 
e|---------------------------------------------------------------------------| 
B|---------------------------------------------------------------------------| 
G|-5-------5-----------5---5-------------------------------------------------| 
D|-5-3-7-5-5-3-7-5-3-5-5-7-5-7-3-5-------------------------------------------| 
A|-3-3-7-5-3-3-7-5-3-5-3-7-3-7-3-5-------------------------------------------| 
E|---1-5-3---1-5-3-1-3---5---5-1-3-------------------------------------------| 

*Outro: 
e|---------------------------------------------------------------------------| 
B|---------------------------------------------------------------------------| 
G|-5-55-55-------5-55-55-------5-55-55---------------------------------------| 
D|-5-55-55-77-55-5-55-55-77-55-5-55-55-77-55-3333-3--------------------------| 
A|-3-33-33-77-55-3-33-33-77-55-3-33-33-77-55-3333-3--------------------------| 
E|---------55-33---------55-33---------55-33-1111-1--------------------------| 
		  

See also:

tabs Green Day - 16 tabs Green Day - Brain Stew tabs Goo Goo Dolls - Name tabs Green Day - Boulevard of Broken Dreams (acoustic part) tabs Green Day - All by myself tabs Green Day - The Simpsons Theme
e-chords

Other versions:

tabs Patent Pending - Cut Copy Paste
auto scroll beats size up size down change color hide chords drawings
tab show chords e-chords YouTube Clip e-chords hide all tabs e-chords go to top tab

share