Pat Metheny

home > Pat Metheny

Medley Tab

Pat Metheny

Difficulty: nolevelnolevel

by jessgomes

tuner correct add songbook print version text version save to e-mail
chordsukulelecavacokeyboardtabbassdrumsharmonicsflute Guitar Pro
chords

Medley

  		



After all this insane hard work, if you enjoy/ed this tab, and would like to buy me a  
cup of coffee or some ice-cream, I’d definitely appreciate it :) 



~~ Enjoy! 



NOTE: 
Most (almost all) of the bass notes in this piece are played using the thumb 


Intro, at 0:35: 

e|-----------5----5------5------5-----| 
B|-----5---6----5----6-6------5---6---| 
G|-----5---5----5----5-5------5---5---| 
D|------------------------------------| 
A|--5----5------5----5------5---------| 
E|------------------------------------| 


e|-----------5----5------5------5-----| 
B|-----5---6----5----6-6------5---6---| 
G|-----5---5----5----5-5------5---5---| 
D|------------------------------------| 
A|------------------------------------| 
E|--8----8------8----8------8---------| 


e|-----------5----5------5------5-----| 
B|-----5---6----5----6-6------5---6---| 
G|-----5---5----5----5-5------5---5---| 
D|------------------------------------| 
A|------------------------------------| 
E|--6----6------6----6------6---------| 



1:01 
     rake                                      rake 
     ----                                      ------------------------------------------| 
e|----------0-0-2-0----|------------------|----------0-0-2-0-----------------------------| 
B|--------2---------2--|----0-2------2-0--|--------2---------2----0-0h1--3-0-0h1p0-------| 
G|------2--------------|--2--------2------|------2--------------2------------------2-----| 
D|----2----------------|--2---------------|----2-----------------------------------------| 
A|--0------------------|------2--------2--|--0------------------0------------------------| 
E|---------------------|--2------2--------|---------------------------1--3---------------| 

e|----------0------------0----| 
B|----------------------------| 
G|-----2-------------2--------| 
D|-------2------2------2------| 
A|----------------3-----------| 
E|--1-------------------------| 


1:13 
     rake                                      rake 
     ----                                      -------------------------------------------| 
e|----------0-0-2-0----|------------------|----------0-0-2-0------------------------------| 
B|--------2---------2--|----0-2------2-0--|--------2---------2----0-0h1--3-0h1-0h1p0------| 
G|------2--------------|--2--------2------|------2--------------2--------------------2----| 
D|----2----------------|--2---------------|----2------------------------------------------| 
A|--0------------------|------2--------2--|--0------------------0-------------------------| 
E|---------------------|--2------2--------|---------------------------1--3-(thumb stays)--| 


e|-----------------0-----| 
B|-----------------------| 
G|-----2------2-------2--| 
D|-----------------------| 
A|---------3----3--------| 
E|--1--------------------| 


1:26                                              1:30 

e|--0--3--3-5-3-0--0-3-5-------------|--0--3-3-5-3-0-----0-------0-----3-----------| 
B|--1-----------------(2)----3---2---|--1--------------3-------1---3/5---3/4/3--1--| 
G|--2-----------------(2)----2---2---|--2------------5-------2---------------------| 
D|--------------------(2)----2---2---|---------------------------------------------| 
A|---------------------0---0---0-----|-----------------------0---------------------| 
E|--1-------3------3-----------------|--1----3-------------------------------------| 



1:36                                      1:39                   1:41 

e|--0--3-3--0-3-----0-3-5h7-5--------0------0---|---0-3-3-0-3/5-3-0-3--5---------------| 
B|--1--1-1----0---------5----------1------1-----|---1-----------------(2)---3---2---2--| 
G|--2--2-2--------------5--------2------2-------|---2-----------------(2)---2---2---2--| 
D|----------------------------------------------|---------------------(2)---2---2---2--| 
A|--0-------------------0-----------------------|----------------------0--0---0---0----| 
E|------------3-------------------------2-------|---1-------3--------------------------| 



1:46 

e|--9---12-12--14--12-9----------9------9----0------0---| 
B|--10--------------------10-12--7----7------0------0---| 
G|--9---------------------9------7-----------2------2---| 
D|---------------------------------7--------------------| 
A|--0--------------9------9-----------------------------| 
E|-------------------------------7-----------2--2-------| 



e|----0-0-2-0---------------------------|----------0--------------0--| 
B|--2---------2----0-0h1--3--0-0h1p0----|----------------------------| 
G|---------------2-------------------2--|-----2--------2----2--------| 
D|--------------------------------------|----------------------------| 
A|--0------------0----------------------|-------3--------------3-----| 
E|---------------------1--3-------------|--1--------------1----------| 




1:56 

e|----0-0-5-0---------------------| 
B|--2---------2-----0-2------2-0--| 
G|----------------2------2-2------| 
D|--------------------------------| 
A|--0--------------------------2--| 
E|--------------------2-----------| 


     rake 
     ---- 
e|----------0-0-2---------------------------|----------0--------------0--| 
B|--------2-------2----0-0h1--3--0-0h1p0----|----------------------------| 
G|------2------------2-------------------2--|-----2--------2----2--------| 
D|----2-------------------------------------|----------------------------| 
A|--0----------------0----------------------|--------3-------------3-----| 
E|-------------------------1--3-------------|--1--------------1----------| 



2:10 

e|--0--3--3-5-3-0--0-3-5-------------|--0--3-3-5-3-0------0------3-5-8/-----3-----------| 
B|--1-----------------(2)----3---2---|--1---------------3----3/5--------3/5---3h4p3--1--| 
G|--2-----------------(2)----2---2---|--2-------------5---------------------------------| 
D|--------------------(2)----2---2---|--------------------------------------------------| 
A|---------------------0---0---0-----|----------------0---------------------------------| 
E|--1-------3------3-----------------|--1----3------------------------------------------| 



2:17 

e|--------0-----0-1-3---0------|------0----------------| 
B|----1-1---3-------------3-1--|----1---1--3-3-1-0-----| 
G|--2--------------------------|--2----------------2---| 
D|-----------------------------|-----------------------| 
A|------------------0----------|-------------------0---| 
E|--1-------3---------------2--|--2--------3-----------| 



2:28 

e|--5-----5----5--3----|------------------|------------------|--------------| 
B|--2-----2----3----5--|---5----5----5-5--|---5----5----5-5--|----5----3----| 
G|--2--2------------5--|---2----2----3-3--|---2----2----5-5--|----5----3----| 
D|-----------2---------|---2--2----2-3-3--|---2--2----2-5-5--|----5----3----| 
A|--0------------------|---0--------------|---0--------------|--0----0------| 
E|---------------------|------------------|------------------|--------------| 


2:32 

e|--------5----|--6-5----------|-----------|-------------5--6--8--10--12--| 
B|--3-5-6---8--|------8-6-5----|------5-5--|----5-6--8--------------------| 
G|-------------|------------6--|--6-7---3--|--7---------------------------| 
D|-------------|---------------|-----------|------------------------------| 
A|--0-----0----|----------0----|--------0--|---------0--------------------| 
E|-------------|---------------|-----------|------------------------------| 


2:43 

                                       Rake 
e|--13-13-13-12----------8----7------|------3----3----3-----3------| 
B|--------------13----10------8------|----5----4----3----4---------| 
G|------------------------------9----|----5----5----3----5---------| 
D|-----------------------------------|----5------------------------| 
A|--12----------------8--------------|----3----3----3----3---------| 
E|----------------------------7------|-----------------------------| 
                                        this measure twice 


2:51                       2:53 

   rake 
e|--3----------6-3-------|--/8-8-8--7-7--5-5--3-------3-5-7----7p5----3--| 
B|--4----6-4-6------1-1--|----------8-8--6-6--5-----5-----5----5---5--5--| 
G|--5---------------2-2--|----------7-7--5-5--5-----------6----6------5--| 
D|--5--------------------|-----------------------------------------------| 
A|-----------------------|--------------------0-----------0-----------0--| 
E|--4----------3----2-2--|----------7------------------------------------| 
 (thumb!) 

                    3:00 

e|----3-5-7---7p5----3----|---7-7--6-7--9--|-----10-10-10-9----------5----4----| 
B|--5-----5---5---5----5--|---5-5--5-5--7--|--10------------10-----7--------5--| 
G|--------6---6------5----|----------------|-----------------------------------| 
D|------------------------|---5------------|--9--------------------------------| 
A|--------0----------3----|----------------|--------------9--------5------4----| 
E|------------------------|----------------|-----------------------------------| 


3:04 

e|-----0------------0-------------5------------5------------5-7----4-------| 
B|--2^-----------3^------------2^-----------3^-------7^--7---------5--5-5--| 
G|--0^-----------0^------------2^-----------2^-------6^--6---------4--4-4--| 
D|--2^-----------2^------------2^-----------2^-------7^---------------6-6--| 
A|--0^----0-0-0--0^-----0-0-0--0^----0-0-0--0^-------0^------------7-------| 
E|-------------------------------------------------------------------------| 



3:12                 3:14 
                                                           brief 
e|------------------|--0-0-2-4-0-0h2-0--------------------|-----| 
B|------------------|---------------------2---2h3-5/3--2--|--4--| 
G|------------------|-----------------------2-----6/4--2--|--4--| 
D|----0-0---0-------|-------------------------------------|-----| 
A|--0-----0------0--|---------------------0-------0----0--|-----| 
E|------------------|-------------------------------------|--4--| 



3:18                                                                                     3:25 

e|----7----------------------|--2-2-4-6---6p4-----------------------------| 
B|--9-----/11-11----------4--|----------------4-2-----------2-4-5--2------| 
G|---------------11-11----2--|--------------------2-2--2-2-----------2-2--| 
D|------------------------4--|--------------------------------------------| 
A|---------9-----------------|-------------------------------------0------| 
E|------------------------2--|--------4---------2------2------------------| 


                                                Rake 
e|-----10-12--13-13-13-12----------8----7------|------3----3----3-----3------| 
B|--10--------------------13----10------8------|----5----4----3----4---------| 
G|----------------------------------------9----|----5----5----3----5---------| 
D|---------------------------------------------|----5------------------------| 
A|------------12----------------8--------------|----3----3----3----3---------| 
E|--------------------------------------7------|-----------------------------| 
                                                 this measure twice 


   rake 
e|--3----------6-3-------|--/8-8-8--7-7--5-5--3-------3-5-7----7p5----3----| 
B|--4----6-4-6------1-1--|----------8-8--6-6--5-----5-----5----5---5--5----| 
G|--5---------------2-2--|----------7-7--5-5--5-----------6----6------5----| 
D|--5--------------------|-------------------------------------------------| 
A|-----------------------|--------------------0-----------0-----------0----| 
E|--4----------3----2-2--|----------7--------------------------------------| 
 (thumb!) 


                                             3:43 

e|----3-5-7---7p5----3----|---7-7--6-7--9--|-----10-10-10-9----------5----4----| 
B|--5-----5---5---5----5--|---5-5--5-5--7--|--10------------10-----7--------5--| 
G|--------6---6------5----|----------------|-----------------------------------| 
D|------------------------|---5------------|--9--------------------------------| 
A|--------0----------3----|----------------|--------------9--------5------4----| 
E|------------------------|----------------|-----------------------------------| 


3:45 

e|-----0----------0-------5-------5---------9---------------| 
B|--2^---------3^------5^------7^--------10---12-----10--7--| 
G|--0^---------0^------6^------6^--------9-----------9---7--| 
D|--2^---------4^------7^------7^---------------------------| 
A|--0^---------0^------0^------0^--------0---------0--------| 
E|----------------------------------------------------------| 


                        3:55 

e|------------------|-----0-2-3-3-2-2--------------0-2p0-0--| 
B|--9-9-9-10-12--5--|-----------------3-3--0-0---0----------| 
G|----9----------6--|--------------------------2------------| 
D|----9----------6--|---------------------------------------| 
A|------------------|---------------------------------------| 
E|------------------|-----3----------------2----------------| 


   3:58 

e|--2--2-4-5------4-5-7-7--4-4-12---10-8-7-7-8-10-----7---| 
B|--2--2-2-2------4------------9------------------8-8-----| 
G|--2-------------4------------9--------------------------| 
D|--------------------------------------------------------| 
A|--0--0-----------------------0--------------------------| 
E|---------------------------------------8--------7-------| 


4:06 


e|--5--------5-6-8--5-5------------------------------0-----0----1------1--3----| 
B|--7---7----------------8-8-6-5--3--3-1---1-3----1------0------1----1----0----| 
G|--7-7---7------------------------------2------2------0--------2--2------0----| 
D|-----------------------------------------------------------------------------| 
A|--------------------------------0-----------------------------0---------2----| 
E|--7---------------6----8-------------------1-------3-------------------------| 

e|----------------------------------------------| 
B|--1------1---3------3---1------1--3-------3---| 
G|--2----2-----0----0-----2----2----0-----0-----| 
D|--3--3-------0--0-------3--3------0---0-------| 
A|--3----------2----------3---------2-----------| 
E|----------------------------------------------| 


4:22 

e|--5-----0-------3----------|------0--1------0------------------0------------------| 
B|---------------------1-----|----3------3-------0----1----3-------1-0-------0-3-1--| 
G|-------------2-----0-------|--0----------2-------0----2----4---------2---0--------| 
D|-----7-----3---------------|---------0------2--------------------------3----------| 
A|------------------------3--|-----------------------------------0---------------0--| 
E|---------------------------|------------------------1----3------------------------| 


    4:30 

e|-----0---------------------------------|-------0------1---3----3----1----------------| 
B|---------------0------0------3--0------|--3------1------1---3----3----1--------------| 
G|--2-----2--------0------0---------0----|----0------0--------------------2-0----------| 
D|----------3--------0------0---------0--|------------------------------------3-2-0----| 
A|------------3--------------------------|--2----3---------------2----0-------------3--| 
E|--------1------3-----------------------|--------------1---3--------------------------| 



e|--1--------------3-------0---1----|---------0--------------0----------------------------| 
B|----3-----3--------3-------1---1--|--3---------1-----1--------3------3---3-----3---3----| 
G|------2-----2--------0------------|----0---------0-----2------4-0------0---0-----0---0--| 
D|--0-------------------------------|------0---------------3--------0----------0----------| 
A|-------------------------3--------|--2------3-------------------------------------------| 
E|----------1------3----------------|------------------1--------3------3---3-----3---3----| 


                                                                           4:48 

e|------------------------------------------------|-------0--1------3------5--------| 
B|--3------3-------3----3-------------0----1------|--3---------3------1------5------| 
G|----0------0-------0-----0--2---------0----0----|----0---------2------0------5----| 
D|------0------0----------------3--------------3--|----------0------2------3-----3--| 
A|--------------------------------3--------0------|--2----3-------------------------| 
E|--3------3-------3----3--0--1-------3-----------|---------------------------------| 



e|-----------------------------0------1-------3-------3---------| 
B|---------0----1--------3--------------3-------1-----0---------| 
G|--2--------0----0--------0-----0--------2-------0-----0-------| 
D|----3-------------3-----------------0-------2-------2---2-----| 
A|------3-------0--------2-----3----------------------------2---| 
E|--1------3----------------------------------------------------| 



4:53 

e|-----------------------------0------1-------1------1-------3--0------3------0------| 
B|---------0----1--------3--------------3-------2------1----------1------1------1----| 
G|--2--------0----0--------0-----0--------2-------2------2----------0------0------0--| 
D|----3-------------3-----------------0-------0------0-------------------------------| 
A|------3-------0--------2-----3--------------------------------3------2------0------| 
E|--1------3-------------------------------------------------------------------------| 


                                                            5:04 

e|--0---------0------0------0------0------|--0------0----3--|----------------------| 
B|----1---------1------1------1------1----|-------1---------|------8-----8------8--| 
G|------0---------2------2------2------2--|-----0-----------|--7/9---7/9----7/9----| 
D|----------------------------------------|-----------------|----------------------| 
A|----------------------------------------|-----------------|----------------------| 
E|--3---------1---------------------------|--1-----------3--|----------------------| 



e|-----0------------|----0-------3----|----0-------0----|-----------------| 
B|-----1-------1----|----0-------0----|----1-------1----|----3-------3----| 
G|-----2-------2----|----0-------0----|----2-----2---2--|----0-----0------| 
D|-----------2---2--|----------0------|-----------------|-----------------| 
A|--0----0-0--------|-----------------|-----------------|-----------------| 
E|------------------|--3---3-3-----3--|--1---1-1--------|--3---3-3-----3--| 



5:14 

e|---------------------|-----------------------------------| 
B|------0-1p0---0h1-3--|--1---1-------1--0-0------8-----8--| 
G|--2-2-------2--------|----2-----2------0-0--7/9---7/9----| 
D|---------------------|-----------------------------------| 
A|--0------------------|-----------------------------------| 
E|--------------3------|----1---1---1----3-----------------| 


5:22 

e|----------0-0---1-3--3-1-1-0-0--------------| 
B|-------------------------------3-3---1-3-1--| 
G|--2-2---2-----------------------------------| 
D|--------------------------------------------| 
A|--0---0-------------------------------------| 
E|------------3--------1-------3---3----------| 


e|--0---------0h1---0---------------------0--------------| 
B|--------1-----------0-0---3-1--1-----1----3-3---1-0----| 
G|------2-------------0-0--------2-2---2----0-0-------2--| 
D|----2--------------------------------------------------| 
A|--0----------------------------------------------------| 
E|------------------3------------1---1------3------------| 



5:39                                                               5:50 

e|-----------0---0--0-1-3--3-1-1-0-0------|----------------5------------------0---------| 
B|--------0--------------------------3-3--|--1-3p1-3/5---5---/5vv--3-1-----1-----3---3--| 
G|------2---------------------------------|------------5---------------2---2-------0----| 
D|----2-----------------------------------|---------------------------------------------| 
A|--0-------------------------------------|--------0-----------------------------2------| 
E|---------------3---------1-------3------|-------------------3--------2-2--------------| 



5:53 

e|---------0-----------------8^---------8---7--5-5-------------------| 
B|--1-3-1-------------3-1----5^-------5-----8--5-5-------5-----------| 
G|-------------0-------------5^-----5----------5-5-------------5-----| 
D|-----------2---------------5^---5----------------------------------| 
A|---------3-----3-3------------------------8---------8-----7-----5--| 
E|-------------------------------------------------------------------| 


6:00 

e|--5-5-7-8--7p/---3-3-0-3--------0---------------------0--|------5---/5--8/----| 
B|-----------8p/----------------3-----3-0------0--------0--|--3/5--------slide--| 
G|-------------------------------------------0--------0----|--------------back--| 
D|---------------------------------------------------------|--------------------| 
A|-----------0----------------0-----0------0--------0------|--------------------| 
E|---------------------------------------------------------|--------------------| 



6:09 

e|--0-------0-0-----------------------------| 
B|----3-1-------3-1-------1------3-1-0------| 
G|--------2---------0-0h2--------------2-0--| 
D|------------------------------------------| 
A|------------------------------------------| 
E|--2-----------------------1-1-------------| 



6:18 

e|-----5--------5----|----5--------5-----|-----5--------5----|------5--------5-----| 
B|-----5--------5----|----0------0-------|-------------------|--0--------0---------| 
G|-------------------|----0----0---------|------------2---2--|----0--------0-------| 
D|---------7---------|-------------------|-------------------|---------------------| X2 
A|--0----0---0-------|-------------------|-------------------|---------------------| 
E|----------------0--|--3---3---------3--|--1-----1-1--------|--3------3--------3--| 



6:33 

e|---------------------12/---------------------------------| 
B|-----------------3---------------0-1-----1---0--1-3-1-0--| 
G|--2--4-5v--2-4/5-----14/-----2---------------------------| 
D|---------------------------------------------------------| 
A|--0------------------------------------------------------| 
E|-------------3------------1----1------1--3---3-----------| 



6:42 

e|---------------------12/------------------------------------| 
B|-----------------3------------0-1----1^--1----1-3-1-0---2^--| 
G|--2--4-5v--2-4/5-----14/----2--------2^-----------------2^--| 
D|--------------------------------------------------------2^--| 
A|--0-----------------------------------------------------0^--| 
E|-------------3------------1--------1-3^---------------------| 
	  

Search Paypal
auto scroll beats size up size down change color hide chords drawings
tab show chords e-chords YouTube Clip e-chords hide all tabs e-chords go to top tab