Pat Metheny

home > Pat Metheny

It's (just talk) Tab

Pat Metheny

Difficulty: ExpertExpert

by easton

tuner correct add songbook print version text version save to e-mail
chordsukulelecavacokeyboardtabbassdrumsharmonicsflute Guitar Pro
chords

It's (just talk)

  		 
9 bar intro 2/4 time 
E|-----------------------------------------------------------------9--------| 
B-|-----9----7----------------------------7--------7-------9-------------- 
G-|-------- -------9-------6-----9------------9-------9---------------9--| 
D-|--------------------------------------------------------------------------| 
A-|-------------------------------------------------------------------------| 
E-|----------------------------------------------------------------------------| 
 
E-|----------------------------------------------------------------------------| 
B-|----7-----8-----7---------------------------------------------10-- 8--7 
G-|-------------------------9-----6-------9------9-----6----9------------| 
D-|-------------------------------------------------------------------------| 
A-|----------------------------------------------------------------------------| 
E-|----------------------------------------------------------------------------| 
 
 
E-|---------------------------------------------------------------------------| 
B-|---------------------------------------------------------------------------| 
G-|---9---9---6---9---9-------------------------------------------------------| X 2 
D-|-------------------------------------------------------------------------| 
A-|-------------------------------------------------------------------------| 
E-|---------------------------------------------------------------------------| 
 
Part 2 
E-|--------------------------------------------------------------------------| 
B-|--------------------------------------------------------------------------| 
G-|----------------6------------------------------9------7-----10--------- 
D-|-6---9---9----------6----------------------------9-----------------8-- 
A-|------------------------------4----7------------------------------------- 
E-|---------------------------------------------------------------------------| 
 
 
E-|---------------------------------------------------------------------------| 
B-|--------------------9---7---------7----8----10----7-----9-----10-------- 
G-|--11-----------------------9----------------------------------------------- 
D-|---------9----9--------------------------------------------------------- 
A-|---------------------------------------------------------------------------| 
E-|---------------------------------------------------------------------------| 
E-|---7-------6---7---9----------------------9----------------------------- 
B-|-------9----------------10---9---7---------------10-------------------- 
G-|---------------------------------------------------------------------------- 
D-|---------------------------------------------------------------------------- 
A-|---------------------------------------------------------------------------| 
E-|---------------------------------------------------------------------------| 
 
 
E-|---------------------------------------------------------------------------| 
B-|--9----7----------7-----9----------------------------------------------- 
G-|-------------9---------------------------------------------------------- 
D-|--------------------------------------------------------------------------- 
A-|---------------------------------------------------------------------------| 
E-|---------------------------------------------------------------------------| 
 
E|-----------------------------------------------------------------9--------| 
B-|-----9----7----------------------------7--------7-------9-------------- 
G-|-------- -------9-------6-----9------------9-------9---------------9--| 
D-|--------------------------------------------------------------------------| 
A-|-------------------------------------------------------------------------| 
E-|----------------------------------------------------------------------------| 
 
E-|----------------------------------------------------------------------------| 
B-|----7-----8-----7---------------------------------------------10-- 8--7 
G-|-------------------------9-----6-------9------9-----6----9------------| 
D-|-------------------------------------------------------------------------| 
A-|----------------------------------------------------------------------------| 
E-|----------------------------------------------------------------------------| 
 
Piano solo 64 bar  
Part 2 
E-|--------------------------------------------------------------------------| 
B-|--------------------------------------------------------------------------| 
G-|----------------6------------------------------9------7-----10--------- 
D-|-6---9---9----------6----------------------------9-----------------8-- 
A-|------------------------------4----7------------------------------------- 
E-|---------------------------------------------------------------------------| 
 
 
E-|---------------------------------------------------------------------------| 
B-|--------------------9---7---------7----8----10----7-----9-----10-------- 
G-|--11-----------------------9----------------------------------------------- 
D-|---------9----9--------------------------------------------------------- 
A-|---------------------------------------------------------------------------| 
E-|---------------------------------------------------------------------------| 
E|-----------------------------------------------------------------9--------| 
B-|-----9----7----------------------------7--------7-------9-------------- 
G-|-------- -------9-------6-----9------------9-------9---------------9--| 
D-|--------------------------------------------------------------------------| 
A-|-------------------------------------------------------------------------| 
E-|----------------------------------------------------------------------------| 
 
E-|----------------------------------------------------------------------------| 
B-|----7-----8-----7---------------------------------------------10-- 8--7 
G-|-------------------------9-----6-------9------9-----6----9------------| 
D-|-------------------------------------------------------------------------| 
A-|----------------------------------------------------------------------------| 
E-|----------------------------------------------------------------------------| 
 
Outro 
 
E|-------------------------------------------------------------------------| 
B-|-----9----7----------7-----------7----------------------------------- 
G-|-------- -------9---------9---6--------9---6---9------6------------------| 
D-|--------------------------------------------------------------------------| 
A-|-------------------------------------------------------------------------| 
E-|----------------------------------------------------------------------------| 
 
E-|----------------------------------------------------------------------------| 
B-|----------------------------------------------------------------------- 
G-|------------------------------------------------------------------------- 
D-|--------9----7------------------7----7-----------------------7----7------ 
A-|--------------------10------7---------------10-----7-------------------- 
E-|----------------------------------------------------------------------------| 
 
E-|----------------------------------------------------------------------------| 
B-|---------------------------------------------------------------------------- 
G-|------------------------------------------------------------------------- 
D-|---------------------7------9------6-----------------------6-----------7- 
A-|-------10-----7 ----------------------------7----------------------- 
E-|-------------------------------------------------------9---------------------| 
 
X 4 fade out  
 

	  

Search Paypal
auto scroll beats size up size down change color hide chords drawings
tab show chords e-chords YouTube Clip e-chords hide all tabs e-chords go to top tab