Pat Green

Nightmare

Pat Green

tabs

save to print version add songbook text version e-mail correct tuner
chordsukulelecavacokeyboardtabbassdrumsharmonicaflute Guitar Pro
close

there isn't a video lesson for this song

chords

Nightmare

	  		Solo: (at end of song, live at billy bobs) 
 b   bend 
 bh  bend,hold 
 rb  release bend    
 br  bend,release   
 brp bend,release,pulloff 
 bv  bend down 
 wh  tremolo bar (whammy) 
 
 
--------------------6b-6b-6br-4---4\-------10/12-10-10h12p10---------------------------------------- 
------8---8\------8-------------6--------8-------------------13p12p10-8-10-------------------------- 
--7/9---9-----7/9--------------------7/9-----------------------------------9bv-9bv-9bv-9bv-9bv-9bv-- 
---------------------------------------------------------------------------------------------------- 
---------------------------------------------------------------------------------------------------- 
---------------------------------------------------------------------------------------------------- 
 
---------------6bh-6rb-4-4\-------6b-6br-4----------------10/12-10---------10-----10-----10------ 
-------------8------------------8----------6-6/9-9\-----8----------12--11b----11b----11b----11b-- 
--7bv-7\-7/9----------------7/9---------------------7/9------------------------------------------ 
------------------------------------------------------------------------------------------------- 
------------------------------------------------------------------------------------------------- 
------------------------------------------------------------------------------------------------- 
 
------10-----10-----10----------15----15-17bh-17rb-17brp15----18b-18brp16----16-16--------------- 
--11b----11b----11b----11\--/17----17----------------------17-------------18-------18-16-16-18--- 
------------------------------------------------------------------------------------------------- 
------------------------------------------------------------------------------------------------- 
------------------------------------------------------------------------------------------------- 
------------------------------------------------------------------------------------------------- 
 
--16-22b-20-19----------------------------------------------------10b-10b-10-8p5-6bh-6rb------ 
---------------22-20-20\-------8-10-10bh-10-10-10-10-10-10-10rb-8------------------------6/8-- 
---------------------------7/9---------------------------------------------------------------- 
---------------------------------------------------------------------------------------------- 
---------------------------------------------------------------------------------------------- 
---------------------------------------------------------------------------------------------- 
 
------------------------------------------10-10--10-10b-10---10-------------------- 
------------------------(3)-----8-----10b----10b----10b-10bh----10rb--------------- 
--9bv-9bv-9bv-9b-7bv-7\-----7/9---9p7--------------------------------12------------ 
------------------------------------------------------------------------14-17------ 
----------------------------------------------------------------------------------- 
------------------------------------------------------------------------------14\-- 
 
------------------------------------------------------------------------------------------------------- 
--------------------------------------------------8---8\------8-11b-12b-11b-8-5------------------------ 
--------0wh-------0wh-----0-2bh-2rb-0---0-----7/9---9-----7/9-------------------7-9bv-9bv-9bv-9bv-7bv-- 
--0h2-0-----0h2-0-----0h2-------------2---2-0---------------------------------------------------------- 
------------------------------------------------------------------------------------------------------- 
------------------------------------------------------------------------------------------------------- 
 
-----------10b-10b-10-10-8-----10------------------------------------------------------ 
------8h10-----------------10b----10br-8---8-----8-10B-12b-10b-8----------------------- 
--7h9------------------------------------9---7-9-----------------9bv-9bv-9bv-9bv-7bv\-- 
--------------------------------------------------------------------------------------- 
--------------------------------------------------------------------------------------- 
--------------------------------------------------------------------------------------- 
 
------------------------ 
------8-10b-11b-10br-8-- 
--7/9------------------- 
------------------------ 
------------------------ 
------------------------ 
		  

auto scroll beats size up size down change color hide chords drawings
tab show chords e-chords YouTube Clip e-chords hide all tabs e-chords go to top tab

share