Pat Green

John Wayne & Jesus

Pat Green

tabs

save to print version add songbook text version e-mail correct tuner
chordsukulelecavacokeyboardtabbassdrumsharmonicaflute Guitar Pro
close

there isn't a video lesson for this song

chords

John Wayne & Jesus

	  		Capo:  2nd Fret 
 
Intro: 
 
e--------------------------------------------2---2-----2---2--- 
B---------0----------0--------0--------0-----3---3-----3---3--- 
G--------------------------------------------2---2-----2---2--- 
D------0----------0--------0--------0---------------0---------- 
A------------0h2--------3--------2--------0-------------------- 
E---3---------------------------------------------------------- 
 
e------------------------------------------------2---2------2---2--- 
B-------------0----------0--------0--------0-----3---3------3---3--- 
G------------------------------------------------2---2------2---2--- 
D----------0----------0--------0--------0-----0----------0---------- 
A----------------0h2--------3--------2------------------------------ 
E---0h2-3----------------------------------------------------------- 
		  

See also:

tabs Charlie Daniels - Long Haired Country Boy (ver. 2) tabs Mindy Smith - One Moment More tabs Dueling Banjos - Dueling Banjos tabs John Denver - Take Me Home, Country Roads (ver. 2) tabs Kansas - Dust In The Wind tabs Irish song/Celtic - Patty
e-chords

Other versions:

tabs Pat Green - John Wayne & Jesus
auto scroll beats size up size down change color hide chords drawings
tab show chords e-chords YouTube Clip e-chords hide all tabs e-chords go to top tab

share