Passion

home > Passion

Brokenhearted Tab

Passion

Difficulty: nolevelnolevel

by LINEKERS

tuner correct add songbook print version text version save to e-mail
chordsukulelecavacokeyboardtabbassdrumsharmonicsflute Guitar Pro
chords

Brokenhearted

  		

Tuning: 
 

This is the gist of it, you can figure out the hammer on/pull offs if you listen to the video. 

Chorus: 

e|---0-------2--------x-------x-----x---------------------------------------------| 
B|---0-------2--------4-------0-----3---------------------------------------------| 
G|---2-------2--------4-------4-----4---------------------------------------------| 
D|---2-------2--------4-------4-----3---------------------------------------------| 
A|---0-------2--------4-------0-----4---------------------------------------------| 
E|---2-------0--------0-------4-----x---------------------------------------------| 

Verse: 
                      ^ 

same except mute 0 on this chord 

PreChorus 

e|--4------------------2------------------------------------------------------------| 
B|--4------------------2------------------------------------------------------------| 
G|--4-----4---6----2---2------------------------------------------------------------| 
D|--4-----4---6----2---2------------------------------------------------------------| 
A|--4-----0---0----0---2------------------------------------------------------------| 
E|--x-----4---6----2---2------------------------------------------------------------| 

************************************ 

| /   slide up 
| \   slide down 
| h   hammer-on 
| p   pull-off 
| ~   vibrato 
| +   harmonic 
| x   Mute note 
| b   Bend 
| pb  Pre-bend 
| br  Bend release 
| pbr Pre-bend release 
| brb Bend release bend 

************************************ 
	  

Search Paypal
auto scroll beats size up size down change color hide chords drawings
tab show chords e-chords YouTube Clip e-chords hide all tabs e-chords go to top tab