Passepied

China Town

Passepied

tabs

by  RENEJUNIOR

save to print version add songbook text version e-mail correct tuner
chordsukulelecavacokeyboardtabbassdrumsharmonicaflute Guitar Pro
close

there isn't a video lesson for this song

chords

China Town

	  		PASSEPIED - CHINA TOWN 

^ = bend up 

e|---------------------------------------------------------------------------| 
b|-18--20-18-----------------------------------------------------------------| 
G|-----------19-17-----17--19-17--------------19-17--------------19-17-------| 
D|-----------------20------------20-17----17--------20-17----17--------20----| 
A|-------------------------------------20-----------------20--------------20-| 
E|---------------------------------------------------------------------------| 

e|-----------------------------------------------------------------| 
b|-18--20-18-------------------------------------------------------| 
G|-----------19-17-----17--19-17--------------19-17----------------| 
D|-----------------20------------20-17----17--------20-17----20----| 
A|-------------------------------------20-----------------20-------| 
E|-----------------------------------------------------------------| 

no guitar for a bit 

e|-13131313131313-12/13131313-101010101010/131313-12/131313131313-| 
b|----------------------------------------------------------------| 
G|-10101010101010-9--10101010-8-8-8-8-8-8-/101010-9-/101010101010-| 
D|----------------------------------------------------------------| x2 
A|----------------------------------------------------------------| 
E|----------------------------------------------------------------| 

e|--------------------------------------------| 
b|-----------------15------15-----------------| 
G|-12----14----15------15------15----12----14-| 
D|-8-----15--------------------------8-----15-| 
A|-10----12--------------------------10----12-| 
E|--------------------------------------------| 

e|-------------------------------------------------------------20----| 
b|-------------------------------------------20-------22-18-18----20-| 
G|-------------------------19-------22-17-17----19-19----------------| 
D|-------19-------22-17-17----20-20----------------------------------| 
A|-17-17----20-20----------------------------------------------------| 
E|-------------------------------------------------------------------| 

I think It's just synth on the next bit 

then repeat all of above 

e|------------------------------------------------------------| 
b|------------------------------------------------------------| 
G|-14h15p14---------------------------------------15/17\15----| 
D|---------------12h13p12----------------------15-------------| 
A|------------------------13h15p13----------13----------------| 
E|------------------------------------13-15-------------------| 

e|--------------------------------------------| 
b|-15h16p15-/-22h23p22-----20^20^20^20^20^20^-| 
G|--------------------------------------------| 
D|--------------------------------------------| 
A|--------------------------------------------| 
E|--------------------------------------------| 

e|------------------------------|--------------------------| 
b|-20-1818-201818-20-1818-------|-20-1818-20-1818-20-18----| 
G|------------------------19-22-|-----------------------19-| 
D|------------------------------|--------------------------| 
A|------------------------------|--------------------------| 
E|------ x3 --------------------|--------------------------| 

Can't work out the mad hammer on end of the solo, sorry. 

No guitar for a bit, then... 

e|-------------------------------------------------------------20----| 
b|-------------------------------------------20-------22-18-18----20-| 
G|-------------------------19-------22-17-17----19-19----------------| 
D|-------19-------22-17-17----20-20----------------------------------| 
A|-17-17----20-20----------------------------------------------------| 
E|-------------------------------------------------------------------| 

No guitar for next riff again, then 

e|---------------------------------------------------------------------------| 
b|-18--20-18-----------------------------------------------------------------| 
G|-----------19-17-----17--19-17--------------19-17--------------19-17-------| 
D|-----------------20------------20-17----17--------20-17----17--------20----| x2 
A|-------------------------------------20-----------------20--------------20-| 
E|---------------------------------------------------------------------------| 

e|---------------------------------------------------------------------------------| 
b|-18--20-18-----------------------------------------------------------------------| 
G|-----------19-17-----17--19-17--------------19-17--------------19-17-------------| 
D|-----------------20------------20-17----17--------20-17----17--------20-17----17-| 
A|-------------------------------------20-----------------20-----------------20----| 
E|---------------------------------------------------------------------------------| 
		  

See also:

tabs Ira! - Envelheço Na Cidade(Solo - Acustivo Mtv) tabs Deep Purple - No No No tabs Deep Purple - Black Night tabs Deep Purple - Smoke on the water(ver. 2) tabs Deep Purple - Since Youve Been Gone tabs Albert Hammond Jr - In My Room
e-chords

Other versions:

tabs Passepied - China Town
auto scroll beats size up size down change color hide chords drawings
tab show chords e-chords YouTube Clip e-chords hide all tabs e-chords go to top tab

share