Parkway Drive

Dedicated

Parkway Drive

tabs

by  BOMBAXXX

save to print version add songbook text version e-mail correct tuner
chordsukulelecavacokeyboardtabbassdrumsharmonicaflute Guitar Pro
close

there isn't a video lesson for this song

chords

Dedicated

	  		
DROP B 

----------------------------------------------------------------------------| 
----------------------------------------------------------------------------| 
-swell----------------------------------------------------------------------| 
-0---/----------------------------------------------------------------------| 
-0--/-----------------------------------------------------------------------| 
-0-/------------------------------------------------------------------------| 




0:13 


----------------------------------------------------------------------| 
----------------------------------------------------------------------| 
----------------------------------------------------------------------| 
----------------------------------------------------------------------| 
----------------------------------------------------------------------| 
-12\-0-0-000-0-0-13\-0-0-000-0-0-17\-0-0-000-0-0-0-10-12-13--13-13-10-| 
     * * *** * *     * * *** * *     * * *** * * 

-------------------------------------------------------------------| 
-------------------------------------------------------------------| 
-------------------------------------------------------------------| 
-------------------------------------------------------------------| 
-------------------------------------------------------------------| 
-12\-0-0-000-0-0-13\-0-0-000-0-0-12\-0-0-000-0-0-333-333-222-222---| 
     * * *** * *     * * *** * *     * * *** * * *** *** *** *** 


----------------------------------------------------------------------| 
----------------------------------------------------------------------| 
----------------------------------------------------------------------| 
----------------------------------------------------------------------| 
----------------------------------------------------------------------| 
-12\-0-0-000-0-0-13\-0-0-000-0-0-17\-0-0-000-0-0-0-10-12-13--13-13-10-| 
     * * *** * *     * * *** * *     * * *** * * 

-------------------------------------------------------------------| 
-------------------------------------------------------------------| 
-------------------------------------------------------------------| 
-------------------------------------------------------------------| 
-------------------------------------------------------------------| 
-12\-0-0-000-0-0-13\-0-0-000-0-0-12\-0-0-000-0-0-333-333-222-222---| 
     * * *** * *     * * *** * *     * * *** * * *** *** *** *** 



----------------------------------------------------------------------| 
----------------------------------------------------------------------| 
----------------------------------------------------------------------| 
----------------------------------------------------------------------| 
----------------------------------------------------------------------| 
-12\-0-0-000-0-0-13\-0-0-000-0-0-17\-0-0-000-0-0-0-10-12-13--13-13-10-| 
     * * *** * *     * * *** * *     * * *** * * 

----------------------------------| 
----------------------------------| 
----------------------------------| 
----------------------------------| 
----------------------------------| 
-12\-0-0-000-0-0-13\-0-0-000-0-0--| 
     * * *** * *     * * *** * *    




0:45 


1 
-///---------///--------///-------///----------------| 
-16----------15---------16--------15-----------20\---| 
-----------------------------------------------------| 
-----------------------------------------------------| 
-----------------------------------------------------| 
-----------------------------------------------------| 

2 
-----------------------------------------------------| 
-----------------------------------------------------| 
-----------------------------------------------------| 
-----------------------------------------------------| 
-0---------------------------------------------------| 
-0---------------------------------------------------| 



-----------------------------------------------------------------| 
-----------------------------------------------------------------| 
-----------------------------------------------------------------| 
-----------------------------------------------------------------| 
-035---8---3---6---5-5-5-035-5-5-035---8---3---6---5-5-5-035-5-5-| 
-----0---0---0---0-------------------0---0---0---0---------------| 
 *** * * * * * * * * * * *** * * *** * * * * * * * * * * *** * * 


------------------------------------------------------------------| 
------------------------------------------------------------------| 
------------------------------------------------------------------| 
------------------------------------------------------------------| 
-035---8---3---6---5-5-5-035-5-5-035---8---3---6---5-5-5-035-5-5--| 
-----0---0---0---0-------------------0---0---0---0---------------0| 
 *** * * * * * * * * * * *** * * *** * * * 


------------------------------------------------------------------| 
------------------------------------------------------------------| 
------------------------------------------------------------------| 
-770-770-550-550-332-0-235-3-2-0-770-770-550-550-332-0-235-3-2-0--| 
------------------------------------------------------------------| 
------------------------------------------------------------------| 
 *** *** *** *** *** * *** * * * *** *** *** *** *** * *** * * * 

------------------------------------------------------------------| 
------------------------------------------------------------------| 
------------------------------------------------------------------| 
-770-770-550-550-332-0-235-3-2-0-770-770-550-550-332-0-235-3-2-0--| 
------------------------------------------------------------------| 
------------------------------------------------------------------| 
 *** *** *** *** *** * *** * * * *** *** *** *** *** * *** * * * 




1:07 

1 
------------------------------------------------------| 
------------------------------------------------------| 
---------------------------/10------------10----------| 
-770-770--5-7-770-770--5-7------------14--------14----| 
----------3-5----------3-5----------------------------| 
------------------------------------------------------| 
 *** ***      *** *** 
2 
------------------------------------------------------| 
------------------------------------------------------| 
------------------------------------------------------| 
-770-770--5-7-770-770--5-7--------------------5-------| 
----------3-5----------3-5--3--------5--------3-------| 
----------------------------3--------5----------------| 
 *** ***      *** *** 


----------------------------------------------| 
----------------------------------------------| 
----------------------------------------------| 
-770-770--5-7-770-770--5-7--770-770-550-550---| 
----------3-5----------3-5--------------------| 
----------------------------------------------| 
 *** ***      *** ***       *** *** *** *** 





1;17 

----------------------------------------------------------------------| 
----------------------------------------------------------------------| 
----------------------------------------------------------------------| 
----------------------------------------------------------------------| 
----------------------------------------------------------------------| 
-12\-0-0-000-0-0-13\-0-0-000-0-0-17\-0-0-000-0-0-0-10-12-13--13-13-10-| 
     * * *** * *     * * *** * *     * * *** * * 

-------------------------------------------------------------------| 
-------------------------------------------------------------------| 
-------------------------------------------------------------------| 
-------------------------------------------------------------------| 
-------------------------------------------------------------------| 
-12\-0-0-000-0-0-13\-0-0-000-0-0-12\-0-0-000-0-0-333-333-222-222---| 
     * * *** * *     * * *** * *     * * *** * * *** *** *** *** 



----------------------------------------------------------------------| 
----------------------------------------------------------------------| 
----------------------------------------------------------------------| 
----------------------------------------------------------------------| 
----------------------------------------------------------------------| 
-12\-0-0-000-0-0-13\-0-0-000-0-0-17\-0-0-000-0-0-0-10-12-13--13-13-10-| 
     * * *** * *     * * *** * *     * * *** * * 

----------------------------------| 
----------------------------------| 
----------------------------------| 
----------------------------------| 
----------------------------------| 
-12\-0-0-000-0-0-13\-0-0-000-0-0--| 
     * * *** * *     * * *** * *    




1:36 


1 
-///---------///--------///-------///----------------| 
-16----------15---------16--------15-----------20\---| 
-----------------------------------------------------| 
-----------------------------------------------------| 
-----------------------------------------------------| 
-----------------------------------------------------| 

2 
-----------------------------------------------------| 
-----------------------------------------------------| 
-----------------------------------------------------| 
-----------------------------------------------------| 
-0---------------------------------------------------| 
-0---------------------------------------------------| 



-----------------------------------------------------------------| 
-----------------------------------------------------------------| 
-----------------------------------------------------------------| 
-----------------------------------------------------------------| 
-035---8---3---6---5-5-5-035-5-5-035---8---3---6---5-5-5-035-5-5-| 
-----0---0---0---0-------------------0---0---0---0---------------| 
 *** * * * * * * * * * * *** * * *** * * * * * * * * * * *** * * 


------------------------------------------------------------------| 
------------------------------------------------------------------| 
------------------------------------------------------------------| 
------------------------------------------------------------------| 
-035---8---3---6---5-5-5-035-5-5-035---8---3---6---5-5-5-035-5-5--| 
-----0---0---0---0-------------------0---0---0---0---------------0| 
 *** * * * * * * * * * * *** * * *** * * * 




1:50 


------------------------------------------------------------------| 
------------------------------------------------------------------| 
------------------------------------------------------------------| 
-770-770-550-550-332-0-235-3-2-0-770-770-550-550-332-0-235-3-2-0--| 
------------------------------------------------------------------| 
------------------------------------------------------------------| 
 *** *** *** *** *** * *** * * * *** *** *** *** *** * *** * * * 

------------------------------------------------------------------| 
------------------------------------------------------------------| 
------------------------------------------------------------------| 
-770-770-550-550-332-0-235-3-2-0-770-770-550-550-332-0-235-3-2-0--| 
------------------------------------------------------------------| 
------------------------------------------------------------------| 
 *** *** *** *** *** * *** * * * *** *** *** *** *** * *** * * * 


1 
------------------------------------------------------| 
------------------------------------------------------| 
---------------------------/10------------10----------| 
-770-770--5-7-770-770--5-7------------14--------14----| 
----------3-5----------3-5----------------------------| 
------------------------------------------------------| 
 *** ***      *** *** 
2 
------------------------------------------------------| 
------------------------------------------------------| 
------------------------------------------------------| 
-770-770--5-7-770-770--5-7--------------------5-------| 
----------3-5----------3-5--3--------5--------3-------| 
----------------------------3--------5----------------| 
 *** ***      *** *** 


----------------------------------------------| 
----------------------------------------------| 
----------------------------------------------| 
-770-770--5-7-770-770--5-7--770-770-550-550---| 
----------3-5----------3-5--------------------| 
----------------------------------------------| 
 *** ***      *** ***       *** *** *** *** 




2:11 


1 
-///---------------------///-///----------------------| 
-15-----------------------13-16-----------------------| 
------------------------------------------------------| 
------------------------------------------------------| 
------------------------------------------------------| 
------------------------------------------------------| 

2 
------------------------------------------------------| 
------------------------------------------------------| 
------------------------------------------------------| 
------------------------------------------------------| 
------------------------------------------------------| 
-000--0-000--000-0--000-0--0-000--0-000--000-0--000-0-| 
 ***  * ***  *** *  *** *  * ***  * ***  *** *  *** * 




1 
-///-------------------------///-///--------GRAD BEND-------------14-| 
-15---------------------------13-18-------------------------------18-| 
-----------------------------------------------------------------------| 
-----------------------------------------------------------------------| 
-----------------------------------------------------------------------| 
-----------------------------------------------------------------------| 

2 
-----------------------------------------------------------------------| 
-----------------------------------------------------------------------| 
-----------------------------------------------------------------------| 
--------------------------------------------------------------------0--| 
--------------------------------------------------------------------0--| 
-0-000--0-000--000-0--000-0--0-000--0-000--000-12-15-12-10-12-13-12-0--| 




2;26 


12TH FRET HARMONICS 
---------------------------------------------------------------------------| 
---------------------------------------------------------------------------| 
---------------------------------------------------------------------------| 
------------------------------------------------------------3--1--4--1--0--| 
------------------------------------------------------------3--1--4--1--0--| 
-000-0-0--0000-0-0--000-0-0--0000-0-0--000-0-0--0000-0-0-00-3--1--4--1--0--| 
 **H * *  **HH * *  **H * *  **HH * *  **H * *  **HH * * **    



1W/WAH  
-----------------------------------------------------------------------| 
-15-64 NOTES-GRAD BEND--------------------------------RELEASE AT END-| 
-----------------------------------------------------------------------| 
-----------------------------------------------------------------------| 
-----------------------------------------------------------------------| 
-----------------------------------------------------------------------| 


2 
-------------------------------------------------------------------------------| 
-------------------------------------------------------------------------------| 
-------------------------------------------------------------------------------| 
-----------_-------------------_-----------------------------------------------| 
--^-------/ \---------^-------/ \---------^-----------^------------------------| 
-1-0--0--0-1-0--0-0--1-0--0--0-1-0--0-0--1-0--0--0-0-1-0--0-0--444-444-333-111-| 
      *         * *       *         * *       *           * *  *** *** *** *** 


1 
----------------------------------------------------------------------------| 
-15-48 NOTES /3 BENDS AND UNBENDS-----------------------------------------| 
----------------------------------------------------------------------------| 
----------------------------------------------------------------------------| 
----------------------------------------------------------------------------| 
----------------------------------------------------------------------------| 

2 
----------------------------------------------------------------------------| 
----------------------------------------------------------------------------| 
----------------------------------------------------------------------------| 
-----------_-------------------_--------------------------------------------| 
--^-------/ \---------^-------/ \---------^-----------^---------------------| 
-1-0--0--0-1-0--0-0--1-0--0--0-1-0--0-0--1-0--0--0-0-1-0--0-0---------------| 
      *         * *       *         * *       *           * *   




2:49 


-------------------------------------------------------------------------------------------------| 
-------------------------------------------------------------------------------------------------| 
-------------------------------------------------------------------------------------------------| 
------0-----------------------0-----------------------0------------------------------------------| 
------0-----------------------0-----------------------0------------------------------------------| 
-1-0--0--0-0-1-3-4-3-1-0-1-0--0--0-0-1-3-4-3-1-0-1-0--0--0-0-1-3-4-3-1-0-1-0-4444-4444-3333-1111-| 
 * *     * * * * * * * * * *     * * * * * * * * * *     * * * * * * * * * * **** **** **** **** 



-----------------------------------------------------------------------------------------------| 
-----------------------------------------------------------------------------------------------| 
-----------------------------------------------------------------------------------------------| 
------0-----------------------0-----------------------0----------------------------------------| 
------0-----------------------0-----------------------0----------------------------------------| 
-1-0--0--0-0-1-3-4-3-1-0-1-0--0--0-0-1-3-4-3-1-0-1-0--0--0-0-1-3-4-3-1-0-1-0-4444-4444-333-111-| 
 * *     * * * * * * * * * *     * * * * * * * * * *     * * * * * * * * * * **** **** *** *** 




---------------------------------------------------------------------------------------------------| 
---------------------------------------------------------------------------------------------------| 
---------------------------------------------------------------------------------------------------| 
---------------------------------------------------------------------------------------------------| 
---------------------------------------------------------------------------------------------------| 
-0-0-0-0-0-0--00110-00440--0-0-0-0-0-0--00110-11100--0-0-0-0-0-0--00110-00440--1111-1111-3333-1111-| 
 * * * * * *  ***** *****  * * * * * *  ***** *****  * * * * * *  ***** *****  **** **** ***  **** 

----------------------------------------------------------------------------------------------------| 
----------------------------------------------------------------------------------------------------| 
----------------------------------------------------------------------------------------------------| 
---------------------------------------------------------------------------------------------------0| 
---------------------------------------------------------------------------------------------------0| 
-0-0-0-0-0-0--00110-00440--0-0-0-0-0-0--00110-00440--0-0-0-0-0-0--00110-00440--1111-1111-3333-111--0| 
 * * * * * *  ***** *****  * * * * * *  ***** *****  * * * * * *  ***** *****  **** **** **** *** 
		  

See also:

tabs INXS - New Sensation tabs Men At Work - Overkill (bestt) tabs The Beautiful Girls - Morning Sun tabs Cold Chisel - Khe Sanh tabs INXS - Devil Inside tabs INXS - Never Tear us Apart
e-chords

Other versions:

tabs Parkway Drive - Dedicated tabs The Mamas and the Papas - Dedicated To The One I Love
auto scroll beats size up size down change color hide chords drawings
tab show chords e-chords YouTube Clip e-chords hide all tabs e-chords go to top tab

share