Parkway Drive

Absolute Power

Parkway Drive

tabs

by  BRUNBLAZKOWSKI

save to print version add songbook text version e-mail correct tuner
chordsukulelecavacokeyboardtabbassdrumsharmonicaflute Guitar Pro
close

there isn't a video lesson for this song

chords

Absolute Power

	  		
Intro: 
Guitar 1 and 2 
Starts at : 0:19 

C#|-------------------------------|----------------------------|--------------------------------| 
G#|-------------------------------|----------------------------|--------------------------------| 
E |-------------------------------|----------------------------|--------------------------------|   
B |----2------------------2-3-2-0-|--2-----------------2-3-2-0-|--2------------------2-3-2-0----|  
F#|-------------------------------|----------------------------|--------------------------------| 
B |-------2~--2-2-3-2~-2~---------|-----2~--2-2-3-2~-2~--------|-----2~--2-2-3-2~-2~------------| 


C#|---------------------------------------------------------------------------------------------| 
G#|---------------------------------------------------------------------------------------------| 
E |---------------------------------------------------------------------------------------------|   
B |----2----------------2-3-2-0-----------------------------------------------------------------| 
F#|---------------------------------------------------------------------------------------------| 
B |------3~-3-3-3-5-5---------------------------------------------------------------------------| 

Guitar 2: 

C#|---------------------------------------------------------------------------------------------| 
G#|---------------------------------------------------------------------------------------------| 
E |---------------------------------------------------------------------------------------------|   
B |------2~~~-----------------------------------------------------------------------------------| 
F#|------2~~~-----------------------------------------------------------------------------------| 
B |------2~~~-----------------------------------------------------------------------------------| 

Verse: 

Guitar 1(Clean): 

C#|---------------------------------------------------------------------------------------------| 
G#|------------------8--------------11----------------------------------------------------------| 
E |-------------11------11-------9------12~~----------------------------------------------------|  x2 
B |---------9---------------9-------------------------------------------------------------------| 
F#|----7----------------------------------------------------------------------------------------| 
B |---------------------------------------------------------------------------------------------| 

Guitar 2 : 
At:0:43 
C#|---------------------------------------------------------------------------------------------| 
G#|---------------------------------------------------------------------------------------------| 
E |---------------------------------------------------------------------------------------------|   
B |---------------------------------------------------------------------------------------------| 
F#|---------------------------------------------------------------------------------------------| 
B |------3-2--3-2-------------------------------------------------------------------------------| 
                

Guitar 1(Clean): 

C#|----------------------------|-----------------------------------------------------------------| 
G#|------------------8---------|-----------------------------------------------------------------| 
E |-------------11------11-----|-------12-----------11--12~--------------------------------------|   
B |---------9---------------9--|---10------10---12-----------------------------------------------| 
F#|----7-----------------------|-----------------------------------------------------------------| 
B |----------------------------|-----------------------------------------------------------------| 

Guitar 1(Clean): 

C#|---------------------------------------------------------------------------------------------| 
G#|------------------8--------------------------------------------------------------------------| 
E |-------------11------11----------------------------------------------------------------------|   
B |---------9----------------9~~----------------------------------------------------------------| 
F#|----7----------------------------------------------------------------------------------------| 
B |---------------------------------------------------------------------------------------------| 


Guitar 2: 

C#|---------------------------------------------------------------------------------------------| 
G#|---------------------------------------------------------------------------------------------| 
E |---------------------------------------------------------------------------------------------|   
B |----0-2--0-2---0-2---------------------------------------------------------------------------| 
F#|---------------------------------------------------------------------------------------------| 
B |-------2-----2-----2------2*-2*-2*-2*-2*-------------------------------------------------------| 
PM:       *     *     *  N.H. - - - - - - -     


Guitar 1: 

C#|---------------------------------------------------------------------------------------------| 
G#|------12-------10-12-13-12~~~----------------------------------------------------------------| 
E |----------9~---------------------------------------------------------------------------------|   
E |---------------------------------------------------------------------------------------------| 
F#|---------------------------------------------------------------------------------------------| 
B |---------------------------------------------------------------------------------------------| 


Guitar 2: 

C#|--------------------------------------------------------------------------------------------| 
G#|--------------------------------------------------------------------------------------------| 
E |--------------------------------------------------------------------------------------------|   
B |---0-2--0-2---2-2-2-------------------------------------------------------------------------| 
F#|---0-2--0-2---2-2-2-------------------------------------------------------------------------| 
B |---0-2--0-2---2-2-2-------------------------------------------------------------------------| 
PM:   * *  * *   * * *               

Guitar 1: 

C#|---------------------------------------------------------------------------------------------| 
G#|------12-------10-12-13-12~~~----------------------------------------------------------------| 
E |----------9~---------------------------------------------------------------------------------|   
E |---------------------------------------------------------------------------------------------| 
F#|---------------------------------------------------------------------------------------------| 
B |---------------------------------------------------------------------------------------------| 

Guitar 2: 

C#|---------------------------------------------------------------------------------------------| 
G#|---------------------------------------------------------------------------------------------| 
E |---------------------------------------------------------------------------------------------|   
B |---0-2--0-2\---------------------------------------------------------------------------------| 
F#|---0-2--0-2\---------------------------------------------------------------------------------| 
B |---0-2--0-2\---------------------------------------------------------------------------------| 
PM:   * *  *                 

Chorus: "The truth drops like a bomb" 
Guitar 1 and 2  

C#|-------------------------------|----------------------------|--------------------------------| 
G#|-------------------------------|----------------------------|--------------------------------| 
E |-------------------------------|----------------------------|--------------------------------|   
B |----2------------------2-3-2-0-|--2-----------------2-3-2-0-|--2------------------2-3-2-0----|  
F#|-------------------------------|----------------------------|--------------------------------| 
B |-------2~--2-2-3-2~-2~---------|-----2~--2-2-3-2~-2~--------|-----2~--2-2-3-2~-2~------------| 


C#|---------------------------------------------------------------------------------------------| 
G#|---------------------------------------------------------------------------------------------| 
E |---------------------------------------------------------------------------------------------|   
B |----2----------------2-3-2-0-----------------------------------------------------------------| 
F#|---------------------------------------------------------------------------------------------| 
B |------3~-3-3-3-5-5---------------------------------------------------------------------------| 

Verse: 

Guitar 1(Clean): 

C#|---------------------------------------------------------------------------------------------| 
G#|------------------8--------------11----------------------------------------------------------| 
E |-------------11------11-------9------12~~----------------------------------------------------|  x2 
B |---------9---------------9-------------------------------------------------------------------| 
F#|----7----------------------------------------------------------------------------------------| 
B |---------------------------------------------------------------------------------------------| 

Guitar 2 : 
C#|---------------------------------------------------------------------------------------------| 
G#|---------------------------------------------------------------------------------------------| 
E |--------------------------5~----7~-----------------------------------------------------------| 
B |--------------------------5~----7~-----------------------------------------------------------| 
F#|--------------------------3~----5~-----------------------------------------------------------| 
B |------3-2-2-2---3-2--------------------------------------------------------------------------| 
PM:          * *                

Guitar 1(Clean): 

C#|--------------------------------------------------------------------------------------------| 
G#|--------------------------------------------------------------------------------------------| 
E |---------------------------------11------------12-----------11--12~-------------------------|   
B |--------------------------------------9-----10----10---12-----------------------------------| 
F#|--------------------------------------------------------------------------------------------| 
B |--------------------------------------------------------------------------------------------| 

Guitar 2 : 

C#|-----------------------------------------|----------------------------------------------------| 
G#|-----------------------------------------|----------------------------------------------------| 
E |-----------------------------------------|----------------------------------------------------| 
B |-----0-2---0-2----0-2-----0-2-----0-2----|--0-2---0-2---0-2-----------------------------------| 
F#|-----------------------------------------|----------------------------------------------------| 
B |---------2-----2-------2-------2-------2-|----2------2-----------2*-2*-2*-2*-2*---------------| 
PM:     * * * * * *  * *  *  * *  *  * *  *                    N.H.- - - - - - - - 


Guitar 1: 

C#|---------------------------------------------------------------------------------------------| 
G#|------12-------10-12-13-12~~~----------------------------------------------------------------| 
E |----------9~---------------------------------------------------------------------------------|   
E |---------------------------------------------------------------------------------------------| 
F#|---------------------------------------------------------------------------------------------| 
B |---------------------------------------------------------------------------------------------| 

Guitar 2 : 
At:0:43 
C#|---------------------------------------------------------------------------------------------| 
G#|---------------------------------------------------------------------------------------------| 
E |---------------------------------------------------------------------------------------------| 
B |-----0-2----2-3-2---0-2------2-3-2-3-2-3-2---------------------------------------------------| 
F#|---------------------------------------------------------------------------------------------| 
B |---------2----------------2------------------------------------------------------------------| 
PM:     * * *  * * *   * *   *   * * * * * * *   


Guitar 1: 

C#|---------------------------------------------------------------------------------------------| 
G#|------12-------10-12-13-12~~~----------------------------------------------------------------| 
E |----------9~---------------------------------------------------------------------------------|   
E |---------------------------------------------------------------------------------------------| 
F#|---------------------------------------------------------------------------------------------| 
B |---------------------------------------------------------------------------------------------| 


Guitar 2 : 

C#|---------------------------------------------------------------------------------------------| 
G#|---------------------------------------------------------------------------------------------| 
E |---------------------------------------------------------------------------------------------| 
B |-----0-2-----2-3-2---------------------------------------------------------------------------| 
F#|---------------------------------------------------------------------------------------------| 
B |----------2----------0-2\--------------------------------------------------------------------| 
PM:     * *  *  * * *     

Chorus: "The truth drops like a bomb" 
Guitar 1 and 2  

C#|-------------------------------|----------------------------|--------------------------------| 
G#|-------------------------------|----------------------------|--------------------------------| 
E |-------------------------------|----------------------------|--------------------------------|   
B |----2------------------2-3-2-0-|--2-----------------2-3-2-0-|--2------------------2-3-2-0----|  
F#|-------------------------------|----------------------------|--------------------------------| 
B |-------2~--2-2-3-2~-2~---------|-----2~--2-2-3-2~-2~--------|-----2~--2-2-3-2~-2~------------| 


C#|---------------------------------------------------------------------------------------------| 
G#|---------------------------------------------------------------------------------------------| 
E |---------------------------------------------------------------------------------------------|   
B |----2----------------2-3-2-0-----------------------------------------------------------------| 
F#|---------------------------------------------------------------------------------------------| 
B |------3~-3-3-3-5-5---------------------------------------------------------------------------| 


Bridge: 
Guitar 1(With wah): 

C#|--------8------7-------------|----------------------------------------------------------------| 
G#|--------11b~---10b~-----5----|-6--5~--6--5~--6--5~--6--5--5--5~-------------------------------| 
E |------------------------8b~--|----------------------------------------------------------------|   
E |-----------------------------|----------------------------------------------------------------| 
F#|-----------------------------|----------------------------------------------------------------| 
B |-----------------------------|----------------------------------------------------------------| 

Guitar 1(With wah): 

C#|--------8------7------------|-----------------------------------------------------------------| 
G#|--------11b~---10b~-----5---|-5--6--5h-6p-5----5---6--5--5~~----------------------------------| 
E |------------------------8b~-|----------------7------------------------------------------------|   
E |----------------------------|-----------------------------------------------------------------| 
F#|----------------------------|-----------------------------------------------------------------| 
B |----------------------------|-----------------------------------------------------------------| 

Guitar 1 and 2 : 



C#|---------------------------------------------------------------------------------------------| 
G#|---------------------------------------------------------------------------------------------| 
E |---------------------------------------------------------------------------------------------|   
B |------2~~~-----------------------------------------------------------------------------------| 
F#|------2~~~-----------------------------------------------------------------------------------| 
B |------2~~~-----------------------------------------------------------------------------------| 


Guitar 2: 

C#|---------------------------------------------------------------------------------------------| 
G#|---------------------------------------------------------------------------------------------| 
E |---------------------------------------------------------------------------------------------|   
B |------2-2-2--- 2-2-2------2-2-2---2-2-2------------------------------------------------------| 
F#|------2-2-2----2-2-2------2-2-2---2-2-2------------------------------------------------------| 
B |------2-2-2----2-2-2------2-2-2---2-2-2------------------------------------------------------| 
PM:      * * *    * * *      * * *   * * * 


Guitar 1(With wah-pedal): "Absolute Power" 

C#|--------------------------------|------------------------------------------------------------| 
G#|--------------------------------|------------------------------------------------------------| 
E |--------4b-4b-4b-4b-4b-4b-4b-4b-|-4r-4r-4r-4r-4r-4r-4r-4r------------------------------------| x4  
B |--------------------------------|------------------------------------------------------------| 
F#|--------------------------------|------------------------------------------------------------| 
B |--------------------------------|------------------------------------------------------------| 
Bend and release struming 16 times  

C#|---------------------------------------------------------------------------------------------| 
G#|---------------------------------------------------------------------------------------------| 
E |---------------------------------------------------------------------------------------------| x4  
B |---------------------------------------------------------------------------------------------| 
F#|---------------------------------------------------------------------------------------------| 
B |----2-2-2-2-2-2-2-2-2-2-2-2-2-2-2-2----------------------------------------------------------| 
PM:    * * * * * * * * * * * * * * * *  




Guitar 3(With wah-pedal): 
At: 2:57 
C#|--------8------7-----------------------------------------------------------------------------| 
G#|--------11b~---10b~-----5--------------------------------------------------------------------| 
E |------------------------8b~------------------------------------------------------------------|   
E |---------------------------------------------------------------------------------------------| 
F#|---------------------------------------------------------------------------------------------| 
B |---------------------------------------------------------------------------------------------| 

Breakdown: 

Guitar 1 and 2: "ABSOLUTE POWER" 


C#|---------------------------------------------------------------------------------------------| 
G#|---------------------------------------------------------------------------------------------| 
E |---------------------------------------------------------------------------------------------|   
E |----2-3-2--2-2---2-3-2--2--0-0-0-0-----------------------------------------------------------| 
B |----2-3-2--2-2---2-3-2--2--0-0-0-0-----------------------------------------------------------| 
B |----2-3-2--2-2---2-3-2--2--0-0-0-0-----------------------------------------------------------| 
PM:           * *          *  * * * * 


Outro 

Guitar 1: 

C#|-------------------------------|------------------10-----------|-----------------------------| 
G#|------12-------10-12-13-12~~~--|----12-----10--12-------13~~~~-|--12----10-12-13-12~~~~------| 
E |----------9~-------------------|-------9-----------------------|-----9~----------------------|   
E |-------------------------------|-------------------------------|-----------------------------| 
F#|-------------------------------|-------------------------------|-----------------------------| 
B |-------------------------------|-------------------------------|-----------------------------| 

Guitar 2 : 

C#|-------------------------------|----------------------------|--------------------------------| 
G#|-------------------------------|----------------------------|--------------------------------| 
E |-------------------------------|----------------------------|--------------------------------|   
B |----2------------------2-3-2-0-|--2-----------------2-3-2-0-|--2------------------2-3-2-0----|  
F#|-------------------------------|----------------------------|--------------------------------| 
B |-------2~--2-2-3-2~-2~---------|-----2~--2-2-3-2~-2~--------|-----2~--2-2-3-2~-2~------------| 


C#|---------------------------------------------------------------------------------------------| 
G#|---------------------------------------------------------------------------------------------| 
E |---------------------------------------------------------------------------------------------|   
B |----2----------------2-3-2-0-----------------------------------------------------------------| 
F#|---------------------------------------------------------------------------------------------| 
B |------3~-3-3-3-5-5---------------------------------------------------------------------------| 

Guitar 1: 

C#|---------------------------------------------------------------------------------------------| 
G#|------12-------12---------------12-----------------------------------------------------------| 
E |----------9~-------9~--------9--------9~-----------------------------------------------------|   
E |-------------------------12------------------------------------------------------------------| 
F#|---------------------------------------------------------------------------------------------| 
B |---------------------------------------------------------------------------------------------| 



Guitar 1 and 2: 

C#|---------------------------------------------------------------------------------------------| 
G#|---------------------------------------------------------------------------------------------| 
E |---------------------------------------------------------------------------------------------|   
B |------2-2-----2-2----------------------------------------------------------------------------| 
F#|------2-2-----2-2----------------------------------------------------------------------------| 
B |------2-2-----2-2----------------------------------------------------------------------------| 


PM  Palm Mute 
\   slide 
~   vibrato 
h   hammer on 
p   pull of 
b   bend 
r   release 
N.H. natural harmoncs 
		  

See also:

tabs The Church - Unguarded Moment tabs Ammonia - You're Not The Only One tabs Beaverloop - Funkywrench tabs Joss Stone - Put Your Hands On Me Baby tabs INXS - Need you tonight tabs The Beautiful Girls - Blackbird
e-chords

Other versions:

tabs Parkway Drive - Absolute Power
auto scroll beats size up size down change color hide chords drawings
tab show chords e-chords YouTube Clip e-chords hide all tabs e-chords go to top tab

share