Paramore

home > Paramore

That's What You Get Tab

Paramore

Difficulty: BeginnerBeginner

by ChrisFHansen

tuner correct add songbook print version text version save to e-mail
chordsukulelecavacokeyboardtabbassdrumsharmonicsflute Guitar Pro
chords

That's What You Get

Year: 2007 - Album: Riot!

  		Afinação  D# (Tune D#)  

Sexta Corda afinada em D# (6st String tuned to D#)  

Use Whammy Pedal (Usar pedal de Whammy)  
e|---------------------------------------------------------------------  
B|---------------------------------------------------------------------  
G|---------------------------------------------------------------------  
D|--------4/6--------6\9-------9/11---------------------4/6-------6\9--  
A|--4-4-4------4-4-4-----6-6-6------11-11-11---9--4-4-4-----4-4-4------  
E|---------------------------------------------------------------------  

                          Clean Guitar (Guitarra Limpa)  
e|-----------------------|---------------------------------------------  
B|-----------------------|---------------------------------------------  
G|-----------------------|---------------------------------------------  
D|-------9/11----------9-|-7-7-7---7-7-7---9-9-9---11-11-11---7-7-7----  
A|-6-6-6------11-11-11---|-7-7-7---7-7-7---9-9-9---11-11-11---7-7-7----  
E|-----------------------|-7-7-7---7-7-7---9-9-9---11-11-11---7-7-7----  

                             Use Whammy Pedal (Usar pedal de Whammy)   
e|--------------------------|------------------------------------------  
B|--------------------------|------------------------------------------  
G|--------------------------|------------------------------------------  
D|--7-7-7---9-9-9---11-11-11|-------4/6-------6\9-------9/11-----------  
A|--7-7-7---9-9-9---11-11-11|-4-4-4-----4-4-4-----6-6-6------11-11-11-9  
E|--7-7-7---9-9-9---11-11-11|------------------------------------------  

  Clean Guitar (Guitarra Limpa)  
e|---------------------------------------------------------------------  
B|---------------------------------------------------------------------  
G|---------------------------------------------------------------------  
D|-7-7-7---7-7-7---9-9-9---11-11-11---7-7-7---7-7-7---9-9-9---11-11-11-  
A|-7-7-7---7-7-7---9-9-9---11-11-11---7-7-7---7-7-7---9-9-9---11-11-11-  
E|-7-7-7---7-7-7---9-9-9---11-11-11---7-7-7---7-7-7---9-9-9---11-11-11-  


  Overdriven Guitar (Distorção)  
e|---------------------------------------------------------------------  
B|---------------------------------------------------------------------  
G|---------------------------------------------------6-6-6-6-6-6-6-6---  
D|-2~~~~~~~~~~---7-7-7-7-7-7-7-7---2-2-2-2-2-2-2-2---6-6-6-6-6-6-6-6---  
A|-2~~~~~~~~~~---7-7-7-7-7-7-7-7---2-2-2-2-2-2-2-2---4-4-4-4-4-4-4-4---  
E|-2~~~~~~~~~~---7-7-7-7-7-7-7-7---2-2-2-2-2-2-2-2---------------------  

e|---------------------------------------------------------------------  
B|---------------------------------------------------------------------  
G|4-4-4-4-4-4-4-4---------------------------------------4-4-4-4-4-4-4-4  
D|4-4-4-4-4-4-4-4---7-7-7-7-7-7-7-7---2-2-2-2-2-2-2-2---4-4-4-4-4-4-4-4  
A|2-2-2-2-2-2-2-2---7-7-7-7-7-7-7-7---2-2-2-2-2-2-2-2---2-2-2-2-2-2-2-2  
E|------------------7-7-7-7-7-7-7-7---2-2-2-2-2-2-2-2------------------  

e|---------------------------------------------------------------------  
B|---------------------------------------------------------------------  
G|4-4-4-4-4-4-4-4---6-6-6-6-6-6-6-6---4-4-4-4-4-4-4-4---6-6-6-6-6-6-6-6  
D|4-4-4-4-4-4-4-4---6-6-6-6-6-6-6-6---4-4-4-4-4-4-4-4---6-6-6-6-6-6-6-6  
A|2-2-2-2-2-2-2-2---4-4-4-4-4-4-4-4---2-2-2-2-2-2-2-2---4-4-4-4-4-4-4-4  
E|---------------------------------------------------------------------  

e|---------------------------------------------------------------------  
B|---------------------------------------------------------------------  
G|4-4-4-4-4-4-4-4---------------------------------------4-4-4-4-4-4-4-4  
D|4-4-4-4-4-4-4-4---7-7-7-7-7-7-7-7---2-2-2-2-2-2-2-2---4-4-4-4-4-4-4-4  
A|2-2-2-2-2-2-2-2---7-7-7-7-7-7-7-7---2-2-2-2-2-2-2-2---2-2-2-2-2-2-2-2  
E|------------------7-7-7-7-7-7-7-7---2-2-2-2-2-2-2-2------------------  

e|---------------|  
B|---------------|  
G|4-4-4-4-4-4-4-4|  
D|4-4-4-4-4-4-4-4|  
A|2-2-2-2-2-2-2-2|  
E|---------------|  


Guitar 1 Plays alone (Tocar apenas ela)  
e|-----------------------------------------------------  
B|-----------------------------------------------------  
G|-----------------------------------------------------  
D|-11-11-11-x-x-x-x--11-11-11-x-x-x-x--13-13-13-x-x-x-x  
A|-7--7--7--x-x-x-x--7--7--7--x-x-x-x--9--9--9--x-x-x-x  
E|-7--7--7--x-x-x-x--7--7--7--x-x-x-x--9--9--9--x-x-x-x  

e|-------------  
B|-------------  
G|-------------  
D|14-14-14-9~~-  
A|11-11-11-6~~-  
E|11-11-11-6~~-  

_______________________________________________________________________  

Guitar 1  
e|-----------------------------------------------------  
B|-----------------------------------------------------  
G|-----------------------------------------------------  
D|-11-11-11-x-x-x-x--11-11-11-x-x-x-x--13-13-13-x-x-x-x  
A|-7--7--7--x-x-x-x--7--7--7--x-x-x-x--9--9--9--x-x-x-x  
E|-7--7--7--x-x-x-x--7--7--7--x-x-x-x--9--9--9--x-x-x-x  

Guitar 2 plays along with guitar 1 (tocar junto com a guitarra 1)  
e|---------------------------------------------------------------------  
B|---------------------------------------------------------------------  
G|---------------------------------------------------------------------  
D|--------4/6--------6\9-------9/11---------------------4/6-------6\9--  
A|--4-4-4------4-4-4-----6-6-6------11-11-11---9--4-4-4-----4-4-4------  
E|---------------------------------------------------------------------  



Guitar 1  
e|-------------  
B|-------------  
G|-------------  
D|14-14-14-9~~-  
A|11-11-11-6~~-  
E|11-11-11-6~~-  

Guitar 2 plays along with guitar 1 (tocar junto com a guitarra 1)  
e|-----------------------  
B|-----------------------  
G|-----------------------  
D|-------9/11----------9-  
A|-6-6-6------11-11-11---  
E|-----------------------  
________________________________________________________________________  

  Clean Guitar  
e|---------------------------------------------------------------------  
B|---------------------------------------------------------------------  
G|---------------------------------------------------------------------  
D|7-7-7---7-7-7---9-9-9---11-11-11---7-7-7---7-7-7---9-9-9---11-11-11--  
A|7-7-7---7-7-7---9-9-9---11-11-11---7-7-7---7-7-7---9-9-9---11-11-11--  
E|7-7-7---7-7-7---9-9-9---11-11-11---7-7-7---7-7-7---9-9-9---11-11-11--  

e|---------------------------------------------------------------------  
B|---------------------------------------------------------------------  
G|---------------------------------------------------------------------  
D|7-7-7---7-7-7---9-9-9---11-11-11---7-7-7---7-7-7---9-9-9---11-11-11--  
A|7-7-7---7-7-7---9-9-9---11-11-11---7-7-7---7-7-7---9-9-9---11-11-11--  
E|7-7-7---7-7-7---9-9-9---11-11-11---7-7-7---7-7-7---9-9-9---11-11-11--  

  Overdriven Guitar (Distorção)  
e|---------------------------------------------------------------------  
B|---------------------------------------------------------------------  
G|---------------------------------------------------6-6-6-6-6-6-6-6---  
D|-2~~~~~~~~~~---7-7-7-7-7-7-7-7---2-2-2-2-2-2-2-2---6-6-6-6-6-6-6-6---  
A|-2~~~~~~~~~~---7-7-7-7-7-7-7-7---2-2-2-2-2-2-2-2---4-4-4-4-4-4-4-4---  
E|-2~~~~~~~~~~---7-7-7-7-7-7-7-7---2-2-2-2-2-2-2-2---------------------  

e|---------------------------------------------------------------------  
B|---------------------------------------------------------------------  
G|4-4-4-4-4-4-4-4---------------------------------------4-4-4-4-4-4-4-4  
D|4-4-4-4-4-4-4-4---7-7-7-7-7-7-7-7---2-2-2-2-2-2-2-2---4-4-4-4-4-4-4-4  
A|2-2-2-2-2-2-2-2---7-7-7-7-7-7-7-7---2-2-2-2-2-2-2-2---2-2-2-2-2-2-2-2  
E|------------------7-7-7-7-7-7-7-7---2-2-2-2-2-2-2-2------------------  

e|---------------------------------------------------------------------  
B|---------------------------------------------------------------------  
G|4-4-4-4-4-4-4-4---6-6-6-6-6-6-6-6---4-4-4-4-4-4-4-4---6-6-6-6-6-6-6-6  
D|4-4-4-4-4-4-4-4---6-6-6-6-6-6-6-6---4-4-4-4-4-4-4-4---6-6-6-6-6-6-6-6  
A|2-2-2-2-2-2-2-2---4-4-4-4-4-4-4-4---2-2-2-2-2-2-2-2---4-4-4-4-4-4-4-4  
E|---------------------------------------------------------------------  

e|---------------------------------------------------------------------  
B|---------------------------------------------------------------------  
G|4-4-4-4-4-4-4-4---------------------------------------4-4-4-4-4-4-4-4  
D|4-4-4-4-4-4-4-4---7-7-7-7-7-7-7-7---2-2-2-2-2-2-2-2---4-4-4-4-4-4-4-4  
A|2-2-2-2-2-2-2-2---7-7-7-7-7-7-7-7---2-2-2-2-2-2-2-2---2-2-2-2-2-2-2-2  
E|------------------7-7-7-7-7-7-7-7---2-2-2-2-2-2-2-2------------------  

e|---------------|  
B|---------------|  
G|4-4-4-4-4-4-4-4|  
D|4-4-4-4-4-4-4-4|  
A|2-2-2-2-2-2-2-2|  
E|---------------|  

  Clean Guitar  
e|---------------------------------------------------------------------  
B|---------------------------------------------------------------------  
G|---------------------------------------------------------------------  
D|7-7-7---7-7-7---9-9-9---11-11-11---7-7-7---7-7-7---9-9-9---11-11-11--  
A|7-7-7---7-7-7---9-9-9---11-11-11---7-7-7---7-7-7---9-9-9---11-11-11--  
E|7-7-7---7-7-7---9-9-9---11-11-11---7-7-7---7-7-7---9-9-9---11-11-11--  

e|---------------------------------------------------------------------  
B|---------------------------------------------------------------------  
G|---------------------------------------------------------------------  
D|7-7-7---7-7-7---9-9-9---11-11-11---7-7-7---7-7-7---9-9-9---11-11-11--  
A|7-7-7---7-7-7---9-9-9---11-11-11---7-7-7---7-7-7---9-9-9---11-11-11--  
E|7-7-7---7-7-7---9-9-9---11-11-11---7-7-7---7-7-7---9-9-9---11-11-11--  


  Use Whammy Pedal (Usar pedal de Whammy)  
e|---------------------------------------------------------------------  
B|---------------------------------------------------------------------  
G|---------------------------------------------------------------------  
D|--------4/6--------6\9-------9/11---------------------4/6-------6\9--  
A|--4-4-4------4-4-4-----6-6-6------11-11-11---9--4-4-4-----4-4-4------  
E|---------------------------------------------------------------------  

                            
e|-----------------------  
B|-----------------------  
G|-----------------------  
D|-------9/11----------9-  
A|-6-6-6------11-11-11---  
E|-----------------------  


(((Just Drums and Vocals))) (((Apenas bateria e vocal)))  


  Overdriven Guitar (Distorção)    
e|------------------------------------------------------  
B|------------------------------------------------------  
G|------------------------------------6-6-6-6-6-6-6-6---  
D|7-7-7-7-7-7-7-7---2-2-2-2-2-2-2-2---6-6-6-6-6-6-6-6---  
A|7-7-7-7-7-7-7-7---2-2-2-2-2-2-2-2---4-4-4-4-4-4-4-4---  
E|7-7-7-7-7-7-7-7---2-2-2-2-2-2-2-2---------------------  

e|---------------------------------------------------------------------  
B|---------------------------------------------------------------------  
G|4-4-4-4-4-4-4-4---------------------------------------4-4-4-4-4-4-4-4  
D|4-4-4-4-4-4-4-4---7-7-7-7-7-7-7-7---2-2-2-2-2-2-2-2---4-4-4-4-4-4-4-4  
A|2-2-2-2-2-2-2-2---7-7-7-7-7-7-7-7---2-2-2-2-2-2-2-2---2-2-2-2-2-2-2-2  
E|------------------7-7-7-7-7-7-7-7---2-2-2-2-2-2-2-2------------------  

e|---------------------------------------------------------------------  
B|---------------------------------------------------------------------  
G|4-4-4-4-4-4-4-4---6-6-6-6-6-6-6-6---4-4-4-4-4-4-4-4---6-6-6-6-6-6-6-6  
D|4-4-4-4-4-4-4-4---6-6-6-6-6-6-6-6---4-4-4-4-4-4-4-4---6-6-6-6-6-6-6-6  
A|2-2-2-2-2-2-2-2---4-4-4-4-4-4-4-4---2-2-2-2-2-2-2-2---4-4-4-4-4-4-4-4  
E|---------------------------------------------------------------------  

e|---------------------------------------------------------------------  
B|---------------------------------------------------------------------  
G|4-4-4-4-4-4-4-4---------------------------------------4-4-4-4-4-4-4-4  
D|4-4-4-4-4-4-4-4---7-7-7-7-7-7-7-7---2-2-2-2-2-2-2-2---4-4-4-4-4-4-4-4  
A|2-2-2-2-2-2-2-2---7-7-7-7-7-7-7-7---2-2-2-2-2-2-2-2---2-2-2-2-2-2-2-2  
E|------------------7-7-7-7-7-7-7-7---2-2-2-2-2-2-2-2------------------  

e|---------------|  
B|---------------|  
G|4-4-4-4-4-4-4-4|  
D|4-4-4-4-4-4-4-4|  
A|2-2-2-2-2-2-2-2|  
E|---------------|  

e|---------------------------------------------------------------------  
B|---------------------------------------------------------------------  
G|-------------------------------9~~~~~~~~~~~~~~~~---------------------  
D|7-7-7-x-x-x-x---7-7-7-x-x-x-x--9~~~~~~~~~~~~~~~~---------------------  
A|7-7-7-x-x-x-x---7-7-7-x-x-x-x--7~~~~~~~~~~~~~~~~---------------------  
E|7-7-7-x-x-x-x---7-7-7-x-x-x-x----------------------------------------  

	  

Full key step upFull key step up
Half key step upHalf key step up
Half key step downHalf key step down
Full key step downFull key step down
Search Paypal
auto scroll beats size up size down change color hide chords drawings
tab show chords e-chords YouTube Clip e-chords hide all tabs e-chords go to top tab