Paramore

Misery Business

Paramore

tabs Beginner beginner

by  EUROPEU

save to print version add songbook text version e-mail correct tuner
chordsukulelecavacokeyboardtabbassdrumsharmonicaflute Guitar Pro
close
misery-business-by-paramore

there is a video lesson for this song

chords

Misery Business

Year: 2007 - Album: Riot!

	  		Intro/Main Riff: 

   Gtr. 1 
eb|----------------|----------------|----------------|----------------| 
Bb|----------------|----------------|----------------|----------------| 
Gb|--------4h6-4h6-|----------------|--------4h6-4h6-|----------------| 
Db|7-7---7---------|6-6---6-6-6---6-|7-7---7---------|4-4---4-4-4-----| 
Ab|----------------|----------------|----------------|----------------| 
Db|----------------|----------------|----------------|----------------| 
  | 
  |Gtr. 2 
eb|----------------|----------------|----------------|----------------| 
Bb|----------------|----------------|----------------|----------------| 
Gb|----------------|----------------|----------------|----------------| 
Db|4-4---4---------|2-2---2-2-2---2-|4-4---4---------|0-0---0-0-0-----| 
Ab|4-4---4-2h4-2h4-|2-2---2-2-2---2-|4-4---4-2h4-2h4-|0-0---0-0-0-----| 
Db|4-4---4---------|2-2---2-2-2---2-|4-4---4---------|0-0---0-0-0-----| 

eb|----------------|----------------|----------------|----------------| 
Bb|----------------|----------------|----------------|---------2-5-5--| 
Gb|--------4h6-4h6-|----------------|--------4h6-4h6-|-----2-4--------| 
Db|7-7---7---------|6-6---6-6-6---6-|7-7---7---------|-2-4------------| 
Ab|----------------|----------------|----------------|----------------| 
Db|----------------|----------------|----------------|----------------| 
  | 
  | 
eb|----------------|----------------|----------------|----------------| 
Bb|----------------|----------------|----------------|----------------| 
Gb|----------------|----------------|----------------|----------------| 
Db|4-4---4---------|2-2---2-2-2---2-|4-4---4---------|7-7-7-7-6-6-6-6-| 
Ab|4-4---4-2h4-2h4-|2-2---2-2-2---2-|4-4---4-2h4-2h4-|7-7-7-7-6-6-6-6-| 
Db|4-4---4---------|2-2---2-2-2---2-|4-4---4---------|7-7-7-7-6-6-6-6-| 

Verse: 

  Gtr. 2 
eb|----------------|----------------|----------------|----------------| 
Bb|----------------|----------------|----------------|----------------| 
Gb|----------------|----------------|----------------|----------------| 
Db|4-4---4---------|2-2---2-2-2---2-|4-4---4---------|0-0---0-0-0-----| 
Ab|4-4---4-2h4-2h4-|2-2---2-2-2---2-|4-4---4-2h4-2h4-|0-0---0-0-0-----| 
Db|4-4---4---------|2-2---2-2-2---2-|4-4---4---------|0-0---0-0-0-----| 
PM . .   . . . . .  . .   . . .   .  . .   . . . . .  . .   . . .     

eb|----------------|----------------|----------------|----------------| 
Bb|----------------|----------------|----------------|----------------| 
Gb|----------------|----------------|----------------|----------------| 
Db|4-4---4---------|2-2---2-2-2---2-|4-4---4---------|2-2-2-2-1-1-1-1-| 
Ab|4-4---4-2h4-2h4-|2-2---2-2-2---2-|4-4---4-2h4-2h4-|2-2-2-2-1-1-1-1-| 
Db|4-4---4---------|2-2---2-2-2---2-|4-4---4---------|2-2-2-2-1-1-1-1-| 
   . .   . . . . .  . .   . . .   .  . .   . . . . .  . . . . . . . .  
   Gtr. 1 
eb|----------------|----------------|----------------|----------------| 
Bb|7-----777-10x10-|7-----777-10x10-|7-----777-10x10-|7-----777--55---| 
Gb|----------------|----------------|----------------|----------------| 
Db|----------------|----------------|----------------|----------------| 
Ab|----------------|----------------|----------------|----------------| 
Db|----------------|----------------|----------------|----------------| 
  |.     ...  . .   .     ...        .     ... .  .   .     ...  .. 
  |Gtr. 2 
eb|----------------|----------------|----------------|----------------| 
Bb|----------------|----------------|----------------|----------------| 
Gb|----------------|----------------|----------------|----------------| 
Db|4-4---4---------|2-2---2-2-2---2-|4-4---4---------|0-0---0-0-0-----| 
Ab|4-4---4-2h4-2h4-|2-2---2-2-2---2-|4-4---4-2h4-2h4-|0-0---0-0-0-----| 
Db|4-4---4---------|2-2---2-2-2---2-|4-4---4---------|0-0---0-0-0-----| 
PM . .   . . . . .  . .   . . .   .  . .   . . . . .  . .   . . .     

eb|----------------|----------------|----------------|-------------9/-| 
Bb|7-----777-10x10-|7-----777-10x10-|7-----777-10x10-|101010101212----| 
Gb|----------------|----------------|----------------|----------------| 
Db|----------------|----------------|----------------|----------------| 
Ab|----------------|----------------|----------------|----------------| 
Db|----------------|----------------|----------------|----------------| 
  |.     ... .  .   .     ...        .     ... .  .    
  |                                    
eb|----------------|----------------|----------------|----------------| 
Bb|----------------|----------------|----------------|----------------| 
Gb|----------------|----------------|----------------|----------------| 
Db|4-4---4---------|2-2---2-2-2---2-|4-4---4---------|2-2-2-2-1-1-1-1-| 
Ab|4-4---4-2h4-2h4-|2-2---2-2-2---2-|4-4---4-2h4-2h4-|2-2-2-2-1-1-1-1-| 
Db|4-4---4---------|2-2---2-2-2---2-|4-4---4---------|2-2-2-2-1-1-1-1-| 
   . .   . . . . .  . .   . . .   .  . .   . . . . .  . . . . . . . . 
eb|----------------|----------------| 
Bb|----------------|----------------| 
Gb|----------------|----------------| 
Db|4-4-4-4-4-4-4-4-|2-2-2-2-2-2-2/--| 
Ab|4-4-4-4-4-4-4-4-|2-2-2-2-2-2-2/--| 
Db|4-4-4-4-4-4-4-4-|2-2-2-2-2-2-2/--| 

Chorus: 
   Gtr. 1 
eb|----------------|----------------|----------------|----------------| 
Bb|7-7-7-7-7-7-7-7-|5-5-5-5-5-5-5-5-|7-7-7-7-7-7-7-7-|101010109-9-9-9-| 
Gb|----------------|----------------|----------------|----------------| 
Db|----------------|----------------|----------------|----------------| 
Ab|----------------|----------------|----------------|----------------| 
Db|----------------|----------------|----------------|----------------| 
  |. . . . . . . .  . . . . . . . .  . . . . . . . .  . . . . . . . .  
  |Gtr. 2 
eb|----------------|----------------|----------------|----------------| 
Bb|----------------|----------------|----------------|----------------| 
Gb|----------------|----------------|----------------|----------------| 
Db|0-0-0-0-0-0-0-0-|7-7-7-7-7-7-7-7-|2-2-2-2-2-2-2-2-|7-7-7-7-6-6-6-6-| 
Ab|0-0-0-0-0-0-0-0-|7-7-7-7-7-7-7-7-|2-2-2-2-2-2-2-2-|7-7-7-7-6-6-6-6-| 
Db|0-0-0-0-0-0-0-0-|7-7-7-7-7-7-7-7-|2-2-2-2-2-2-2-2-|7-7-7-7-6-6-6-6-| 

eb|----------------|----------------|----------------|----------------| 
Bb|7-7-7-7-7-7-7-7-|1010101010101010|7-7-7-7-7-7-7-7-|101010109-9-9-9-| 
Gb|----------------|----------------|----------------|----------------| 
Db|----------------|----------------|----------------|----------------| 
Ab|----------------|----------------|----------------|----------------| 
Db|----------------|----------------|----------------|----------------| 
  |. . . . . . . .  . . . . . . . .  . . . . . . . .  . . . . . . . .   
  | 
eb|----------------|----------------|----------------|----------------| 
Bb|----------------|----------------|----------------|----------------| 
Gb|----------------|----------------|----------------|----------------| 
Db|0-0-0-0-0-0-0-0-|7-7-7-7-7-7-7-7-|2-2-2-2-2-2-2-2-|7-7-7-7-6-6-6-6-| 
Ab|0-0-0-0-0-0-0-0-|7-7-7-7-7-7-7-7-|2-2-2-2-2-2-2-2-|7-7-7-7-6-6-6-6-| 
Db|0-0-0-0-0-0-0-0-|7-7-7-7-7-7-7-7-|2-2-2-2-2-2-2-2-|7-7-7-7-6-6-6-6-| 

Eb|----------------|----------------|----------------|----------------| 
Bb|7---7---7---7---|7---7---7---7-10|9---9---9---9---|9---9---9/10----| 
Gb|x---x---x---x---|x---x---x---x-x-|x---x---x---x---|x---x---x-x-----| 
Db|4---4---4---4---|4---4---4---4-7-|6---6---6---6---|6---6---6/7-----| 
Ab|----------------|----------------|----------------|----------------| 
Db|----------------|----------------|----------------|----------------| 
  | 
  | 
eb|----------------|----------------|----------------|----------------| 
Bb|----------------|----------------|----------------|----------------| 
Gb|----------------|----------------|----------------|----------------| 
Db|4---4---4---4---|4---4---4---4-7-|2---2---2---2---|2---2---6/7-----| 
Ab|4---4---4---4---|4---4---4---4-7-|2---2---2---2---|2---2---6/7-----| 
Db|4---4---4---4---|4---4---4---4-7-|2---2---2---2---|2---2---6/7-----| 

eb|----------------|----------------|----------------|9~------7-------| 
Bb|7---7---7---7---|7---7---7---7-10|9---9---9---9---|10~-----9-------| 
Gb|x---x---x---x---|x---x---x---x-x-|x---x---x---x---|----------------| 
Db|4---4---4---4---|4---4---4---4-7-|6---6---6---6---|----------------| 
Ab|----------------|----------------|----------------|----------------| 
Db|----------------|----------------|----------------|----------------| 
  | 
  | 
eb|----------------|----------------|----------------|----------------| 
Bb|----------------|----------------|----------------|----------------| 
Gb|----------------|----------------|----------------|----------------| 
Db|4---4---4---4---|4---4---4---4-7-|2---2---2---2---|----------------| 
Ab|4---4---4---4---|4---4---4---4-7-|2---2---2---2---|----------------| 
Db|4---4---4---4---|4---4---4---4-7-|2---2---2---2---|----------------| 

Pre-Verse: 

eb|----------------|----------------|----------------|----------------| 
Bb|----------------|----------------|----------------|----------------| 
Gb|--------4h6-4h6-|----------------|--------4h6-4h6-|----------------| 
Db|7-7---7---------|6-6---6-6-6---6-|7-7---7---------|4--4--4-4-------| 
Ab|----------------|----------------|----------------|----------------| 
Db|----------------|----------------|----------------|----------------| 
  | 
  | 
eb|----------------|----------------|----------------|----------------| 
Bb|----------------|----------------|----------------|----------------| 
Gb|----------------|----------------|----------------|----------------| 
Db|4-4---4---------|2-2---2-2-2---2-|4-4---4---------|4--4--4-4-------| 
Ab|4-4---4-2h4-2h4-|2-2---2-2-2---2-|4-4---4-2h4-2h4-|4--4--4-4-------| 
Db|4-4---4---------|2-2---2-2-2---2-|4-4---4---------|4--4--4-4-------| 


Order After Pre-Verse: 

Verse, 
Chorus, 

Bridge: 

eb|----------------|----------------|----------------|----------------|\ 
Bb|------5---------|------5---------|------5---------|----------------| | 
Gb|------------6---|------------4---|------------4---|----------------| |-x4 
Db|----------------|----------------|----------------|----------------| | 
Ab|----------------|----------------|----------------|----------------| | 
Db|----------------|----------------|----------------|----------------|/ 

Solo: 
eb|----------------|----------------|----------------|101010109-9-9-9-| 
Bb|5h7-7-7-7-7-7-7-|5h7-7-7-7-7-7-7-|5h7-7-7-7-7-7-7-|----------------|  
Gb|----------------|----------------|----------------|----------------|  
Db|----------------|----------------|----------------|----------------|  
Ab|----------------|----------------|----------------|----------------|  
Db|----------------|----------------|----------------|----------------| 

eb|----------------|----------------|----------------|101010109-9-9-9-| 
Bb|5h7-7-7-7-7-7-7-|5h7-7-7-7-7-7-7-|5h7-7-7-7-7-7-7-|----------------|  
Gb|----------------|----------------|----------------|----------------|  
Db|----------------|----------------|----------------|----------------|  
Ab|----------------|----------------|----------------|----------------|  
Db|----------------|----------------|----------------|----------------| 

eb|1212121212121212|1010101010101010|9-9-9-9-9-9-9-9-|7-7-7-7-7-7-7-7-| 
Bb|----------------|----------------|----------------|----------------|  
Gb|----------------|----------------|----------------|----------------|  
Db|----------------|----------------|----------------|----------------|  
Ab|----------------|----------------|----------------|----------------|  
Db|----------------|----------------|----------------|----------------| 

eb|1212121212121212|1414141414141414|1717171719192121|161616b(17)/----| 
Bb|----------------|----------------|----------------|----------------|  
Gb|----------------|----------------|----------------|----------------|  
Db|----------------|----------------|----------------|----------------|  
Ab|----------------|----------------|----------------|----------------|  
Db|----------------|----------------|----------------|----------------| 

eb|----------------|----------------|----------------|----------------| 
Bb|----------------|----------------|----------------|----------------|  
Gb|----------------|----------------|----------------|----------------|  
Db|----------------|----------------|----------------|----------------|  
Ab|----------------|----------------|----------------|----------------|  
Db|----------------|----------------|----------------|----------------| 

eb|----------------|----------------|----------------|----------------| 
Bb|----------------|----------------|----------------|----------------|  
Gb|----------------|----------------|----------------|----------------|  
Db|----------------|----------------|----------------|----------------|  
Ab|----------------|----------------|----------------|----------------|  
Db|----------------|----------------|----------------|----------------| 

Then Chorus again, 

Outro: 

eb|----------------|----------------|----------------|----------------| 
Bb|----------------|----------------|----------------|----------------| 
Gb|--------4h6-4h6-|----------------|--------4h6-4h6-|----------------| 
Db|7-7---7---------|6-6---6-6-6---6-|7-7---7---------|4-4---4-4-4-----| 
Ab|----------------|----------------|----------------|----------------| 
Db|----------------|----------------|----------------|----------------| 
  | 
  | 
eb|----------------|----------------|----------------|----------------| 
Bb|----------------|----------------|----------------|----------------| 
Gb|----------------|----------------|----------------|----------------| 
Db|4-4---4---------|2-2---2-2-2---2-|4-4---4---------|0-0---0-0-0-----| 
Ab|4-4---4-2h4-2h4-|2-2---2-2-2---2-|4-4---4-2h4-2h4-|0-0---0-0-0-----| 
Db|4-4---4---------|2-2---2-2-2---2-|4-4---4---------|0-0---0-0-0-----| 

eb|----------------|----------------|----------------|----------------| 
Bb|----------------|----------------|----------------|----------------| 
Gb|--------4h6-4h6-|----------------|--------4h6-4h6-|----------------| 
Db|7-7---7---------|6-6---6-6-6---6-|7-7---7---------|4--4--4-4-------| 
Ab|----------------|----------------|----------------|----------------| 
Db|----------------|----------------|----------------|----------------| 
  | 
  | 
eb|----------------|----------------|----------------|----------------| 
Bb|----------------|----------------|----------------|----------------| 
Gb|----------------|----------------|----------------|----------------| 
Db|4-4---4---------|2-2---2-2-2---2-|4-4---4---------|4--4--4-4-------| 
Ab|4-4---4-2h4-2h4-|2-2---2-2-2---2-|4-4---4-2h4-2h4-|4--4--4-4-------| 
Db|4-4---4---------|2-2---2-2-2---2-|4-4---4---------|4--4--4-4-------| 

		  

See also:

tabs Incubus - I Miss You tabs Red Hot Chili Peppers - Dosed tabs Paramore - The Only Exception tabs Red Hot Chili Peppers - Under the Bridge (completo) tabs Alesana - Apology tabs Red Hot Chili Peppers - Dani California (ver.2)
e-chords

Other versions:

tabs Paramore - Misery Business tabs Paramore - Misery Business (tablaturas) tabs Paramore - Misery Business-the Final Riot!
auto scroll beats size up size down change color hide chords drawings
tab show chords e-chords YouTube Clip e-chords hide all tabs e-chords go to top tab

share