Paramore

home > Paramore

Careful Tab

Paramore

Difficulty: BeginnerBeginner

by alexribeiro

tuner correct add songbook print version text version save to e-mail
chordsukulelecavacokeyboardtabbassdrumsharmonicsflute Guitar Pro
chords

Careful

Year: 2009 - Album: Brand New Eyes

  		(intro) 

(guitar 1) 
E |-----------------8--11----------------------------------| 
B |-8h9-8h9-8-------------8~---8h9-8h9-8-------------------| 
G |-----------10-8-----------------------10-8--------------| 
D |--------------------------------------------8--6--5-----| 
A |--------------------------------------------------------| 
D |--------------------------------------------------------| 

E |-----------------8--11--------------------------------------| 
B |-8h9-8h9-8-------------8~---8h9-8h9-8-----------------------| 
G |-----------10-8-----------------------10-8------------------| 
D |--------------------------------------------8--6--5--6~-----| 
A |------------------------------------------------------------| 
D |------------------------------------------------------------| 

(guitar 2) 
E |-------------------------------| 
B |-------------------------------| 
G |-------------------------------| 
D |-33-33-66-8/6--33-33--88-6/5--| 
A |-33-33--66-8/6--33-33--88-6/5--| 
D |-33-33--66-8/6--33-33--88-6/5--| 

E |-----------------------------------| 
B |-----------------------------------| 
G |-----------------------------------| 
D |-33-33-66-8/6--33-33--88-6/5-3~---| 
A |-33-33--66-8/6--33-33--88-6/5-3~---| 
D |-33-33--66-8/6--33-33--88-6/5-3~---| 

(verse) 
(guitar 1 & 2) 
E |--------------------------------| 
B |--------------------------------| 
G |--------------------------------| 
D |-3333-6666-1/3-------3333-6666--| 
A |-3333-6666-1/3-------3333-6666--| 
D |-3333-6666-1/3-------3333-6666--| 

(pre Chorus) 
(guitar 1 & 2) 
E |--------------------------------------------------------------------| 
B |--------------------------------------------------------------------| 
G |----------------------------66666666----------------------------6---| 
D |-33333333-66666666-11111111-66666666-33333333-66666666-11111111-6---| 
A |-33333333-66666666-11111111-44444444-33333333-66666666-11111111-4---| 
D |-33333333-66666666-11111111----------33333333-66666666-11111111-----| 
    ........ ........ ........ ........ ........ ........ ........ 

(Chorus) 
(guitar 1) 
E |---------------------------------------| 
B |---------------------------------------| 
G |-999---77777777777-999-----------------|(2x) 
D |----999---------------999-77777777777--| 
A |---------------------------------------| 
D |---------------------------------------| 

(then) 
E |-------8~--------------6---4---------8~--------------6--| 
B |------------------9~------6---------------------9~------| 
G |-6h8-6------6h8-6-----6--------6h8-6------6h8-6-----6---| 
D |--------------------------------------------------------| 
A |--------------------------------------------------------| 
D |--------------------------------------------------------| 

(guitar 2) 
E |------------------------------------------| 
B |------------------------------------------| 
G |------6666----------------6666------------| 
D |-3333-6666-6666-8888-3333-6666-6666-1111--| 
A |-3333-4444-6666-8888-3333-4444-6666-1111--| 
D |-3333------6666-8888-3333------6666-1111--| 

(then) 
E |-------------------------------------| 
B |-------------------------------------| 
G |-------------------------------------| 
D |-88~---33~---66~---88~---33~---6--5--| 
A |-88~---33~---66~---88~---33~---6--5--| 
D |-88~---33~---66~---88~---33~---6--5--| 

(before verse 2) 
(guitar 1) 
E |-----------------8--11--------------------------------------| 
B |-8h9-8h9-8-------------8~---8h9-8h9-8-----------------------| 
G |-----------10-8-----------------------10-8------------------| 
D |--------------------------------------------8--6--5--6~-----| 
A |------------------------------------------------------------| 
D |------------------------------------------------------------| 

(guitar 2) 
E |-----------------------------------| 
B |-----------------------------------| 
G |-----------------------------------| 
D |-33-33-66-8/6--33-33--88-6/5-3~---| 
A |-33-33--66-8/6--33-33--88-6/5-3~---| 
D |-33-33--66-8/6--33-33--88-6/5-3~---| 

(verse 2) 
(guitar 1 & 2) 
E |--------------------------------| 
B |--------------------------------| 
G |--------------------------------| 
D |-3333-6666-1/3-------3333-6666--| 
A |-3333-6666-1/3-------3333-6666--| 
D |-3333-6666-1/3-------3333-6666--| 

(pre Chorus) 
(guitar 1 & 2) 
E |--------------------------------------------------------------------| 
B |--------------------------------------------------------------------| 
G |----------------------------66666666----------------------------6---| 
D |-33333333-66666666-11111111-66666666-33333333-66666666-11111111-6---| 
A |-33333333-66666666-11111111-44444444-33333333-66666666-11111111-4---| 
D |-33333333-66666666-11111111----------33333333-66666666-11111111-----| 
    ........ ........ ........ ........ ........ ........ ........ 

(Chorus) 
(guitar 1) 
E |---------------------------------------| 
B |---------------------------------------| 
G |-999---77777777777-999-----------------|(2x) 
D |----999---------------999-77777777777--| 
A |---------------------------------------| 
D |---------------------------------------| 

(then) 
E |-------8~--------------6---4---------8~--------------6--| 
B |------------------9~------6---------------------9~------| 
G |-6h8-6------6h8-6-----6--------6h8-6------6h8-6-----6---| 
D |--------------------------------------------------------| 
A |--------------------------------------------------------| 
D |--------------------------------------------------------| 

(guitar 2) 
E |------------------------------------------| 
B |------------------------------------------| 
G |------6666----------------6666------------| 
D |-3333-6666-6666-8888-3333-6666-6666-1111--| 
A |-3333-4444-6666-8888-3333-4444-6666-1111--| 
D |-3333------6666-8888-3333------6666-1111--| 

(then) 
E |------------------------------------| 
B |------------------------------------| 
G |------------------------------------| 
D |-88~---33~---66~---88~---33~---6----| 
A |-88~---33~---66~---88~---33~---6----| 
D |-88~---33~---66~---88~---33~---6----| 

(bridge) 
(guitar 1) 
E |------------7-10--------| 
B |-7-8-------------8-7~---| 
G |-----9-7~---------------|(2x) 
D |------------------------| 
A |------------------------| 
D |------------------------| 

(guitar 2) 
E |--------------------| 
B |--------------------| 
G |------666-----------|(2x) 
D |-888--666--666--111-| 
A |-888--444--666--111-| 
D |-888-------666--111-| 

(then) 
(guitar 1) 
E |--------------------------| 
B |--------------------------| 
G |-9-9--13-13--4-4--11-3-3--|(2x) 
D |-x-x--x--x---x-x--x--x-x--| 
A |-7-7--11-11--2-2--9--1-1--| 
D |--------------------------| 

(guitar 2) 
E |----------------------------------------| 
B |----------------------------------------| 
G |------66-----------------666------------| 
D |-88---66---66---11---88--666--66---11---| 
A |-88---44---66---11---88--444--66---11---| 
D |-88--------66---11---88-------66---11---| 

(after bridge) 
(guitar 1) 
E |---------------------------------| 
B |---------------------------------| 
G |---5-6-8----------5-6-8----------|(2x) 
D |------------------------8-6------| 
A |---------------------------------| 
D |---------------------------------| 

(guitar 2) 
E |---------------------------------| 
B |---------------------------------| 
G |---------------------------------|(2x) 
D |-333333-666-8888-333333-888-6666-| 
A |-333333-666-8888-333333-888-6666-| 
D |-333333-666-8888-333333-888-6666-| 
    ...... ... .... ...... ... .... 

(before last Chorus) 
(guitar 1) 
E |--------------------| 
B |--------------------| 
G |-9---7~---9---------| 
D |---9--------9--7~---| 
A |--------------------| 
D |--------------------| 

(guitar 2) 
E |-----------------| 
B |-----------------| 
G |-----6-----------| 
D |-3---6---6---1---| 
A |-3---4---6---1---| 
D |-3-------6---1---| 

(last Chorus) 
(guitar 1) 
E |---------------------------------------| 
B |---------------------------------------| 
G |-999---77777777777-999-----------------|(4x) 
D |----999---------------999-77777777777--| 
A |---------------------------------------| 
D |---------------------------------------| 

(then) 
(guitar 1) 
E |-------8~--------------6---4---------8~--------------6--| 
B |------------------9~------6---------------------9~------| 
G |-6h8-6------6h8-6-----6--------6h8-6------6h8-6-----6---| 
D |--------------------------------------------------------| 
A |--------------------------------------------------------| 
D |--------------------------------------------------------| 

(guitar 2) 
E |------------------------------------------| 
B |------------------------------------------| 
G |------6666----------------6666------------|(2x) 
D |-3333-6666-6666-8888-3333-6666-6666-1111--| 
A |-3333-4444-6666-8888-3333-4444-6666-1111--| 
D |-3333------6666-8888-3333------6666-1111--| 

(then) 
E |-------------------------------------| 
B |-------------------------------------| 
G |-------------------------------------| 
D |-88~---33~---66~---88~---33~---6--5--| 
A |-88~---33~---66~---88~---33~---6--5--| 
D |-88~---33~---66~---88~---33~---6--5--| 

(end with) 
(guitar 1) 
E |-----------------8--11--------------------------------------| 
B |-8h9-8h9-8-------------8~---8h9-8h9-8-----------------------| 
G |-----------10-8-----------------------10-8------------------| 
D |--------------------------------------------8--6--5--6~-----| 
A |------------------------------------------------------------| 
D |------------------------------------------------------------| 

(guitar 2) 
E |-----------------------------------| 
B |-----------------------------------| 
G |-----------------------------------| 
D |-33-33-66-8/6--33-33--88-6/5-3~---| 
A |-33-33--66-8/6--33-33--88-6/5-3~---| 
D |-33-33--66-8/6--33-33--88-6/5-3~---| 
	  

Full key step upFull key step up
Half key step upHalf key step up
Half key step downHalf key step down
Full key step downFull key step down
Search Paypal
auto scroll beats size up size down change color hide chords drawings
tab show chords e-chords YouTube Clip e-chords hide all tabs e-chords go to top tab