Paralamas do Sucesso

Alagados

Paralamas do Sucesso

tabs Expert expert

by  TIJOLO ELETRICO

save to print version add songbook text version e-mail correct tuner
chordsukulelecavacokeyboardtabbassdrumsharmonicaflute Guitar Pro
close

there isn't a video lesson for this song

chords

Alagados

Year: 2000 - Album: Perfil, Vol. 2

(Hebert Vianna / Bi Ribeiro / João Barone)

	  		ALAGADOS 
 
 
INTRO: (A  E D) 4x 
e|-----------------------------------| 
B|---2-----5-3-2-------5---5---3---3-| 
G|-----2---------4------4-------2----| 
D|-------2---------4/6---6---4---4---| 
A|-0---------------------------------| 
E|-----------------------------------| 2x 
 
e|---9------12-10-9----------12-----12-----10-----10-| 
B|-----10-----------12---------12------------10------| 
G|--------9------------11/13-----13-----11-----11----| 
D|---------------------------------------------------| 
A|-0-------------------------------------------------| 
E|---------------------------------------------------| 
 
e|---5-----9-7-5-4-----4---4---2---2-| 
B|-----5----------------5-------3----| 
G|-------6---------------4-------2---| 
D|-----------------4/6---------------| 
A|-0---------------------------------| 
E|-----------------------------------| 
 
      A E             D 
Todo dia o sol da manhã 
            A 
Vem e lhes desafia 
E                  D 
Traz do sonho pro mundo 
         A 
Quem já não queria 
E              D          A 
Palafitas, trapiches, farrapos 
                    E  D 
Filhos da mesma agonia 
       A  E                 D 
E a cidade que tem braços abertos 
        A 
Num cartão postal 
E                D           A 
Com os punhos fechados na vida real 
E           D      A 
Lhes nega oportunidades  
                       E  D 
Mostra a face dura do mal 
 
Refrão: 
A                 E      D         A 
 Alagados Trench town Favela da maré 
                        E 
A esperança não vem do mar 
           D        A 
Vem das antenas de TV 
                    E            D           A 
A arte de viver da fé só não se sabe fé em que 
                    E            D           A 
A arte de viver da fé só não se sabe fé em que 
 
SOLO: (A  E D) 
e|-----------------------------------| 
B|---2-----5-3-2-------5---5---3---3-| 
G|-----2---------4------4-------2----| 
D|-------2---------4/6---6---4---4---| 
A|-0---------------------------------| 
E|-----------------------------------| 
 
e|---5-----9-7-5-4-----4---4---2---2-| 
B|-----5----------------5-------3----| 
G|-------6---------------4-------2---| 
D|-----------------4/6---------------| 
A|-0---------------------------------| 
E|-----------------------------------| 
 
{REPETE TUDO} 
 
SOLO: 
e|-----------------------------------| 
B|---2-----5-3-2-------5---5---3---3-| 
G|-----2---------4------4-------2----| 
D|-------2---------4/6---6---4---4---| 
A|-0---------------------------------| 
E|-----------------------------------| 2x 
 
e|---9------14-12-10-9-------12-----12-----10-----10-| 
B|-----10----------------------12------------10------| 
G|--------9------------11/13-----13-----11-----11----| 
D|---------------------------------------------------| 
A|-0-------------------------------------------------| 
E|---------------------------------------------------| 
 
e|---5-----9-7-5-4-----4---4---2---2-| 
B|-----5----------------5-------3----| 
G|-------6---------------4-------2---| 
D|-----------------------------------| 
A|-0---------------4/6---------------| 
E|-----------------------------------| 
 
e|-----------------------------------| 
B|---2-----5-3-2-------5---5---3---3-| 
G|-----2---------4------4-------2----| 
D|-------2---------4/6---6---4---4---| 
A|-0---------------------------------| 
E|-----------------------------------| 2x 
 
e|---9------12-10-9----------12-----12-----10-----10-| 
B|-----10-----------12---------12------------10------| 
G|--------9------------11/13-----13-----11-----11----| 
D|---------------------------------------------------| 
A|---------------------------------------------------| 
E|---------------------------------------------------| 
 
e|--------9--------9----------10-------10-----------9--------9---------- 
B|---10-------10-----10-9-9--------9------9-10-10-------10-----10-9-9--- 
G|------9---9----9----------9----9---9------------9---9----9----------9- 
D|---------------------------------------------------------------------- 
A|---------------------------------------------------------------------- 
E|---------------------------------------------------------------------- 
 
-10-------10-------12--10--9-----------10--9---------------12--10--9---- 
------9------9-10-------------12-10-9---------12--10-9-10-------------12 
----9---9--------------------------------------------------------------- 
------------------------------------------------------------------------ 
------------------------------------------------------------------------ 
----------------------------------------------------------------------- 
 
-------10--9-----------------| 
-10-9---------12--10-9-10----| 
-----------------------9 \5--| 
-----------------------------| 
-----------------------------| 
-----------------------------| 
 
{Refrão} 2x (na 1ª vez só instrumentos percussivos) 
 
SOLO: 
e|---12t12t12t12t-12-12-12-10-10-10-9-9-------------------------------- 
B|--------------------------------------12-12-12-10-----------10---10-- 
G|-9------------------------------------------------9h11-9-9-----9----9 
D|--------------------------------------------------------------------- 
A|--------------------------------------------------------------------- 
E|--------------------------------------------------------------------- 
 
-----------------------12-12t12t12t12t12t12t12-12-10-10-10-9-9--------- 
---9---9------7---7--------------------------------------------12-12-12 
-9---9---9--7---7----9------------------------------------------------- 
----------------------------------------------------------------------- 
----------------------------------------------------------------------- 
----------------------------------------------------------------------- 
 
---------------------------------------------9-9-9-9-9-9-9-9----------- 
-10-----------10---10------9---9------7---7--1010101010101010--12-10-9- 
----9h11-9-9-----9----9--9---9---9--7---7------------------------------ 
----------------------------------------------------------------------- 
----------------------------------------------------------------------- 
----------------------------------------------------------------------- 
 
------------------9-9-9-9-9-9-9-9----------------------------1212121212 
------------------1010101010101010--12-10-9------------------1414141414 
-11-9-7-------------------------------------11-9-7--------------------- 
--------11-9-7-7-----------------------------------11-9-7-7------------ 
----------------------------------------------------------------------- 
----------------------------------------------------------------------- 
 
12121212---------------------------121212121212121212----------------- 
14141414--12-10-9------------------141414141414141414--12-10-9-------- 
------------------11-9-7---------------------------------------11-9-7- 
-------------------------11-9-7-7------------------------------------- 
---------------------------------------------------------------------- 
---------------------------------------------------------------------- 
 
--------------9--------9----------10-------10-----------9--------9---- 
---------10-------10-----10-9-9--------9------9-10-10-------10-----10- 
------------9---9----9----------9----9---9------------9---9----9------ 
-11-9-7--------------------------------------------------------------- 
---------------------------------------------------------------------- 
---------------------------------------------------------------------- 
 
------10-------10--------------5-5-7-5-7/9-9--5-5-7-5-2/4-4--0-0-2-0- 
9-9--------9------9-10\5------------------------------3/5-5---------- 
----9----9---9-----------------6-6-7-6-7/9-9--6-6-7-6--------1-1-2-1- 
--------------------------------------------------------------------- 
--------------------------------------------------------------------- 
--------------------------------------------------------------------- 
 
-2/4-4------4---2---0--5-5-7-5-7/9-9--9--9-7------------10-----9----9- 
-3/5-5--3/5---3---2-------------------10-----10-7--5/10---10----10---- 
-----------------------6-6-7-6-7/9-9--9---------7-----------11----9--- 
---------------------------------------------------------------------- 
---------------------------------------------------------------------- 
---------------------------------------------------------------------- 
 
-4-4-2-4-5-------10-----9----9--4-4-2-4-5---| 
-5-5-3-5----5/10---10----10-----5-5-3-5-----| 
---------6-----------11----9------------6---| 
--------------------------------------------| 
--------------------------------------------| 
--------------------------------------------| 
 
A                 E      D         A 
 Alagados Trench town Favela da maré 
                        E 
A esperança não vem do mar 
           D        A 
Vem das antenas de TV 
                    E            D           A 
A arte de viver da fé só não se sabe fé em que 
                    E            D       A 
A arte de viver da fé só não se sabe fé 
 
Esse Refrão tem esse solo como fundo: 
e|-----------------------------------| 
B|---2-----5-3-2-------5---5---3---3-| 
G|-----2---------4------4-------2----| 
D|-------2---------4/6---6---4---4---| 
A|-0---------------------------------| 
E|-----------------------------------| 4x 
 
 
FINAL: 
                          E            D           A 
Mas a arte é de viver da fé só não se sabe fé em que 
                      E            D           A 
A arte é de viver da fé só não se sabe fé em que 
                      E            D           A 
A arte é de viver da fé só não se sabe fé em que 
                      E   D   A 
A arte é de viver da fé ... 
 
O final tem esse solo como fundo: 
e|------9--------9----------10-------10-------| 
B|-10-------10-----10-9-9--------9------9-10--| 
G|----9---9----9----------9----9---9----------| 
D|--------------------------------------------| 
A|--------------------------------------------| 
E|--------------------------------------------| 4x 

		  

Full key step upFull key step up
Half key step upHalf key step up
Half key step downHalf key step down
Full key step downFull key step down
hide glossary

See also:

tabs Engenheiros do Hawaii - Infinita Highway tabs B5 - Só mais uma vez tabs Rodox - Dia Quente tabs Legião Urbana - Há Tempos tabs Raul Seixas - Tente outra vez tabs Engenheiros do Hawaii - Pra ser sincero ( ver. 2)
e-chords

Other versions:

tabs Paralamas do Sucesso - Alagados tabs Paralamas do Sucesso - alagados (ver.2)
auto scroll beats size up size down change color hide chords drawings
tab show chords e-chords YouTube Clip e-chords hide all tabs e-chords go to top tab

share