Papa Roach

home > Papa Roach

Where Did The Angels Go Tab

Papa Roach

Difficulty: ExpertExpert

by TheMisFits

tuner correct add songbook print version text version save to e-mail
chordsukulelecavacokeyboardtabbassdrumsharmonicsflute Guitar Pro
chords

Where Did The Angels Go

(Papa Roach)

  		--------------------------------------------------------| 
--------------------------------------------------------|  
--------------------------------------------------------| 
--------------------------------------------------------| 
----------5---------5-6---------5-----------------------| 
--000-000---000-000--0---000-000---000-000--6666-1111---| 


--------------------------------------------------------------------------------| 
--------------------------------------------------------------------------------| 
--------------------------------------7-8-8-------------------------------------| 
--0--x-x-0----0-8-5-5-0---0--x-x-0--x-x-x-x-0--x-x-0----0-8-5-5-0--x-x-0--------| 
--0--x-x-0----0-8-5-5-0---0--x-x-0--x-5-6-6-0--x-x-0----0-8-5-5-0--x-x-0--------| 
--0--x-x-0----0-8-5-5-0---0--x-x-0--x-------0--x-x-0----0-8-5-5-0--x-x-0--------| 


---------------------------------------------|   
---------------------------------------------| 
---------------------------------------------|  
---------------------------------------------| 
--5------66------66------66------------------| 
----0000----0000----0000----0000/------------| 


--------------------------------------------| 
--------------------------------------------| 
-3---7----3---7-5--3------------------------| 
-3-5-7-3--3-5-7-5--3--5-5-5/----------------| 
-1-5-5-3--1-5-5-3--1--5-5-5/----------------| 
---5---3----5---------5-5-5/----------------| 


---------------------------------------------------------------| 
---------------------------------------------------------------| 
---7-10-7-7-10-7-6-9-6-6-9-6-3-6-3-3-6-3-2-5-2-2-5-2-----------| 
---------------------------------------------------------------| 
---------------------------------------------------------------| 
---------------------------------------------------------------| 
	  

Search Paypal
auto scroll beats size up size down change color hide chords drawings
tab show chords e-chords YouTube Clip e-chords hide all tabs e-chords go to top tab