Papa Roach

home > Papa Roach

...To Be Loved Tab

Papa Roach

Difficulty: BeginnerBeginner

by kalilvaz

tuner correct add songbook print version text version save to e-mail
chordsukulelecavacokeyboardtabbassdrumsharmonicsflute Guitar Pro
chords

...To Be Loved

  		
D--5--5--5--8--10--8--   
A--3--5--3--6--8---6--    
E--3--3--3--6--8---6-- 

refrao: 

D--10--10--8--3----10--8--3--5-- 
A--12--8---6--1----12--6--1--3-- 
E--12--8---6--1----12--6--1--3-- 



D--10--8--3--5-- 
A--12--6--3--5-- 
E--12--6--1--3-- 

refrao
	  

Search Paypal
auto scroll beats size up size down change color hide chords drawings
tab show chords e-chords YouTube Clip e-chords hide all tabs e-chords go to top tab