Papa Roach

home > Papa Roach

Still Swinging Tab

Papa Roach

Difficulty: nolevelnolevel

by andrsouza

tuner correct add songbook print version text version save to e-mail
chordsukulelecavacokeyboardtabbassdrumsharmonicsflute Guitar Pro
chords

Still Swinging

  		

Intro: 

Part 1: 

eb|------------------------------------------------------------------------| 
Bb|------------------------------------------------------------------------| 
Gb|--------7--5--7---------------------------------10-9-10--10------9------| 
Db|--------7--5--7-------------------3--------------x-x--x---x--x4--x--x4--| 
Ab|--0-0---5--3--5----0-0-----0h3h5-----5-----0-0---8-7--8---8------7------| 
Db|--0-0--------------0-0---------------------0-0--------------------------| 


Part 2: 

eb|------------------------------------------------------------------------| 
Bb|------------------------------------------------------------------------| 
Gb|--------7--5--7---------------------------------10-9-10---8------7------| 
Db|--------7--5--7-------------------3--------------x-x--x---x--x4--x--x4--| 
Ab|--0-0---5--3--5----0-0-----0h3h5-----5-----0-0---8-7--8---6------5------| 
Db|--0-0--------------0-0---------------------0-0--------------------------| 



Verse (Part 1) : 

eb|---------------------------------------------------| 
Bb|---------------------------------------------------| 
Gb|-----------------------------------10------9-------| 
Db|----0--0----0-0---------3-----0-0---x--x4--x--x4---| 
Ab|----0--0----0-0---0h3h5---5---0-0---8------7-------| 
Db|----0--0----0-0---------------0-0------------------| 

Verse (Part 2) : 




eb|---------------------------------------------------| 
Bb|---------------------------------------------------| 
Gb|------------------------------------8--------------| 
Db|----0--0----0-0---------3-----0-0---x--x4----------| 
Ab|----0--0----0-0---0h3h5---5---0-0---6--------------| 
Db|----0--0----0-0---------------0-0------------------| 


then  


eb|---------------------------------------------------| 
Bb|---------------------------------------------------| 
Gb|-----------------------------------10------9-------| 
Db|----0--0----0-0---------3-----0-0---x--x4--x--x4---| 
Ab|----0--0----0-0---0h3h5---5---0-0---8------7-------| 
Db|----0--0----0-0---------------0-0------------------| 

eb|----------------------------------------------------| 
Bb|----------------------------------------------------| 
Gb|----------------------------------------------------| 
Db|----0--0----0-0---------3-----0-0--0-0--------------| 
Ab|----0--0----0-0---0h3h5---5---0-0--0-0--------------| 
Db|----0--0----0-0---------------0-0--0-0--------------| 


chorus: 

Guitar 1 : 

eb|---------------------------------------------| 
Bb|---------------------------------------------| 
Gb|---------------------------------------------|        X2 
Db|----3---------0-----------8---------10-------| 
Ab|----3--x16----0--x16------8--x16----10--x8---|  
Db|----3---------0-----------8---------10-------|        


Guitar 2 : 

eb|--------------------------------------------------| 
Bb|--------------------------------------------------| 
Gb|---10------------7---------15---------17----------| 
Db|----x---x16------x--x16-----x--x16-----x-----x8---| 
Ab|----8------------5---------13---------15----------| 
Db|--------------------------------------------------| 


then repaet intro & Verse. 


**Bridge** : 
 I  Just Do  Open D Palm Mute According To The Rythm. 
there Is No Guitar On Bridge so you can do whatever you want. 

Final Chours: 



eb|---------------------------------------------| 
Bb|---------------------------------------------| 
Gb|---------------------------------------------|         
Db|----3---------0-----------8---------10-------| 
Ab|----3---------0-----------8-x16-----10--x4---|  
Db|----3---------0-----------8---------10-------|  

Guitar 1 : 

eb|---------------------------------------------| 
Bb|---------------------------------------------| 
Gb|---------------------------------------------|        X2 
Db|----3---------0-----------8---------10-------| 
Ab|----3--x16----0--x16------8--x16----10--x8---|  
Db|----3---------0-----------8---------10-------|        


Guitar 2 : 

eb|--------------------------------------------------| 
Bb|--------------------------------------------------| 
Gb|---10------------7---------15---------17----------| 
Db|----x---x16------x--x16-----x--x16-----x-----x8---| 
Ab|----8------------5---------13---------15----------| 
Db|--------------------------------------------------| 





Outro: 

eb|------------------------------------------------------------------------| 
Bb|------------------------------------------------------------------------| 
Gb|--------7--5--7---------------------------------10-9-10--10------9------| 
Db|--------7--5--7-------------------3--------------x-x--x---x--x4--x--x4--| 
Ab|--0-0---5--3--5----0-0-----0h3h5-----5-----0-0---8-7--8---8------7------| 
Db|--0-0--------------0-0---------------------0-0--------------------------| 


Part 2: 

eb|------------------------------------------------------------------------| 
Bb|------------------------------------------------------------------------| 
Gb|--------7--5--7---------------------------------10-9-10---8------7------| 
Db|--------7--5--7-------------------3--------------x-x--x---x--x4--x--x4--| 
Ab|--0-0---5--3--5----0-0-----0h3h5-----5-----0-0---8-7--8---6------5------| 
Db|--0-0--------------0-0---------------------0-0--------------------------| 

finish with : 

eb|-------| 
Bb|-------| 
Gb|-------| 
Db|----0--| 
Ab|----0--| 
Db|----0--| 
	  

Full key step upFull key step up
Half key step upHalf key step up
Half key step downHalf key step down
Full key step downFull key step down
Search Paypal
auto scroll beats size up size down change color hide chords drawings
tab show chords e-chords YouTube Clip e-chords hide all tabs e-chords go to top tab