Papa Roach

home > Papa Roach

Snakes Tab

Papa Roach

Difficulty: nolevelnolevel

tuner correct add songbook print version text version save to e-mail
chordsukulelecavacokeyboardtabbassdrummharmonicsflute Guitar Pro
chords

Snakes

  		 
Dropped-D tuning (D A D G B E) low-to-high 
 
------------------------------------------------------------------------------ 
------------------------------------------------------------------------------ 
----------------------------------------10-1010-10-1010--9-9-9-9-9-9-9-9------ 
-10-10-10-10-10-10-10-10-7-7-7-7-7-7-7-7-7-7-7-7-7-7-7-7-7-7-7-7-7-7-7-7------ 
--8-8---8--8--8--8--8--8-7-7-7-7-7-7-7-7-7-7-7-7-7-7-7-7-7-7-7-7-7-7-7-7------ 
-10-10-10-10-10-10-10-10-7-7-7-7-7-7-7-7-7-7-7-7-7-7-7-7-7-7-7-7-7-7-7-7------ 
 Intro and Fill (10's not 1's and 0's)                                         
 
----------------|------------------------------------------------------------- 
----------------|------------------------------------------------------------- 
-9----7------10-|------------------------------------------------------------- 
-x----x---7---x-|-7-/-8-8-8-8------------------------------------------------- 
-7----5---7---8-|-7-/-8-8-8-8------------------------------------------------- 
----------7-----|-7-/-8-8-8-8------------------------------------------------- 
 Play Each Note 16x play this evry other time                                  
 
------------------------------------------------------------------------------ 
------------------------------------------------------------------------------ 
------------------------------------------------------------------------------ 
-7-7-7--7-7---3-3-3--3-3---0-0-0--0-0---3-2-2-2--3-2-2------------------------ 
-7-7-7--7-7---3-3-3--3-3---0-0-0--0-0---3-2-2-2--3-2-2------------------------ 
-7-7-7--7-7---3-3-3--3-3---0-0-0--0-0---3-2-2-2--3-2-2------------------------ 
 Chrous                                                                        
 
----------------------------------------|-------------|----------------------- 
----------------------------------------|-------------|----------------------- 
----------------------------------------|7-7-7/9-109-|----------------------- 
-7-7--7-7--0-0--0-0--8-8--8-8--2-2--3-2-|x-x-x-x--x-x-|3-2--3-2--3-2---------- 
-7-7--7-7--0-0--0-0--8-8--8-8--2-2--3-2-|5-5-5/7--87-|3-2--3-2--3-2---------- 
-7-7--7-7--0-0--0-0--8-8--8-8--2-2--3-2-|-------------|3-2--3-2--3-2---------- 
 Outro              2x-----------------l 4x----------l End doing this          
 
------------------------------------------------------------------------------ 
------------------------------------------------------------------------------ 
------------------------------------------------------------------------------ 
-7/-------5---7---8/-----5-5-------------------------------------------------- 
-7/-------5---7---8/-----5-5-------------------------------------------------- 
-7/-------5---7---8/-----5-5-------------------------------------------------- 
 
_______________________________________________________ 
Contribuição: ([email protected]) 

	  

Full key step upFull key step up
Half key step upHalf key step up
Half key step downHalf key step down
Full key step downFull key step down
Search Paypal
auto scroll beats size up size down change color hide chords drawings
tab show chords e-chords YouTube Clip e-chords hide all tabs e-chords go to top tab