Papa Roach

home > Papa Roach

Not That Beautiful Tab

Papa Roach

Difficulty: nolevelnolevel

by PAULLET3

tuner correct add songbook print version text version save to e-mail
chordsukulelecavacokeyboardtabbassdrumsharmonicsflute Guitar Pro
chords

Not That Beautiful

  		


Intro 

d|---------------------------------------------------------------------------| 
A|---------------------------------------------------------------------------| 
F|---------------------------------------------------------------------------| 
C|--5535xxxx-xxxxxxxx-5535xxxx-xxxxxxxx--------------------------------------| 
G|--5535xxxx-xxxxxxxx-5535xxxx-xxxxxxxx--------------------------------------| 
C|--5535xxxx-xxxxxxxx-5535xxxx-xxxxxxxx--------------------------------------| 

d|---------------------------------------------------------------------------| 
A|---------------------------------------------------------------------------| 
F|---------------------------------------------------------------------------| 
C|--1101xxxx-xxxxxxxx-1101xxxx-xxxx313~--------------------------------------| 
G|--1101xxxx-xxxxxxxx-1101xxxx-xxxx313~--------------------------------------| 
C|--1101xxxx-xxxxxxxx-1101xxxx-xxxx313~--------------------------------------| 


verse 1 

d|---------------------------------------------------------------------------| 
A|---------------------------------------------------------------------------| 
F|---------------------------------------------------------------------------| 
C|--5535xxxx-xx5356~6~-5535xxxx-xx5353~3~------------------------------------| 
G|--5535xxxx-xx5356~6~-5535xxxx-xx5353~3~------------------------------------| 
C|--5535xxxx-xx5356~6~-5535xxxx-xx5353~3~------------------------------------| 

d|---------------------------------------------------------------------------| 
A|---------------------------------------------------------------------------| 
F|---------------------------------------------------------------------------| 
C|--1101xxxx-xxx13135-1101xxxx-xxx1313~--------------------------------------| 
G|--1101xxxx-xxx13135-1101xxxx-xxx1313~--------------------------------------| 
C|--1101xxxx-xxx13135-1101xxxx-xxx1313~--------------------------------------| 


PreChorus 

d|---------------------------------------------------------------------------| 
A|---------------------------------------------------------------------------| 
F|---------------------------------------------------------------------------| 
C|----------------------------------------------------7~8~7~-----------------| 
G|----1010101010101010-88888888-77777777-66666666-55555~5~5~-----------------| 
C|---------------------------------------------------------------------------| 
      . . . . . . . .  ........ ........ ........ .... 

      ^10s 


Chorus 

(Listen for the strumming pattern, it is really easy) 

d|-------------------------------|x2  d|-----| 
A|-------------------------------|    A|-----| 
F|-------------------------------|    F|-----|      
C|--1-------3-------5-------0----|    C|--\\-| 
G|--1-------3-------5-------0----|    G|--\\-| 
C|--1-------3-------5-------0----|    C|--\\-| 


verse 2 

d|---------------------------------------------------------------------------| 
A|---------------------------------------------------------------------------| 
F|---------------------------------------------------------------------------| 
C|--5535xxxx-xxxxxxxx-5535xxxx-xxxxxxxx--------------------------------------| 
G|--5535xxxx-xxxxxxxx-5535xxxx-xxxxxxxx--------------------------------------| 
C|--5535xxxx-xxxxxxxx-5535xxxx-xxxxxxxx--------------------------------------| 

d|---------------------------------------------------------------------------| 
A|---------------------------------------------------------------------------| 
F|---------------------------------------------------------------------------| 
C|--1101xxxx-xxxxxxxx-1101xxxx-xxxx1313--------------------------------------| 
G|--1101xxxx-xxxxxxxx-1101xxxx-xxxx1313--------------------------------------| 
C|--1101xxxx-xxxxxxxx-1101xxxx-xxxx1313--------------------------------------| 

d|---------------------------------------------------------------------------| 
A|---------------------------------------------------------------------------| 
F|---------------------------------------------------------------------------| 
C|--5535-535-5356~6~--5535-535-5353~3~---------------------------------------| 
G|--5535-535-5356~6~--5535-535-5353~3~---------------------------------------| 
C|--5535-535-5356~6~--5535-535-5353~3~---------------------------------------| 

d|---------------------------------------------------------------------------| 
A|---------------------------------------------------------------------------| 
F|---------------------------------------------------------------------------| 
C|--1101-101-1013135--1101-101-101313~---------------------------------------| 
G|--1101-101-1013135--1101-101-101313~---------------------------------------| 
C|--1101-101-1013135--1101-101-101313~---------------------------------------| 


Repeat PreChorus 


Repeat Chorus  (+2 extra bars) 


Bridge 

d|---------------------------------------------------------------------------| 
A|---------------------------------------------------------------------------| 
F|---------------------------------------------------------------------------| 
C|--11-111---11-111---55-555---55-555---11-111---11-111---55-555---55-555----| 
G|--11-111---11-111---55-555---55-555---11-111---11-111---55-555---55-555----| 
C|--11-111---11-111---55-555---55-555---11-111---11-111---55-555---55-555----| 


Last Chorus 

d|---------------------------------------------------------------------------| 
A|---------------------------------------------------------------------------| 
F|---------------------------------------------------------------------------| 
C|----------\\--5-------0-------1-------3-------5-------0-------1-------3----| 
G|----------\\--5-------0-------1-------3-------5-------0-------1-------3----| 
C|----------\\--5-------0-------1-------3-------5-------0-------1-------3----| 


Outro 

d|---------------------------------------------------------------------------| 
A|---------------------------------------------------------------------------| 
F|---------------------------------------------------------------------------| 
C|--555-xx53566--555-xx53533--555-xx53566-555-xx555--------------------------| 
G|--555-xx53566--555-xx53533--555-xx53566-555-xx555--------------------------| 
C|--555-xx53566--555-xx53533--555-xx53566-555-xx555--------------------------| 





************************************ 
| .   palm-mute 
| /   slide up 
| \   slide down 
| h   hammer-on  
| p   pull-off 
| ~   vibrato 
| +   harmonic 
| x   Mute note 
| b   Bend 
| pb  Pre-bend 
| br  Bend release 
| pbr Pre-bend release 
| brb Bend release bend 

************************************ 
	  

Search Paypal
auto scroll beats size up size down change color hide chords drawings
tab show chords e-chords YouTube Clip e-chords hide all tabs e-chords go to top tab