Papa Roach

home > Papa Roach

Life is a Bullet Tab

Papa Roach

Difficulty: nolevelnolevel

tuner correct add songbook print version text version save to e-mail
chordsukulelecavacokeyboardtabbassdrumsharmonicsflute Guitar Pro
chords

Life is a Bullet

  		 
Drop-Db (Db Ab, Db, Gb, Bb, Eb) 
 
------------------------------------------------------------------------------ 
------------------------------------------------------------------------------ 
-----------3/5-5-5-5-5-5-5------------3/7-7-7-7------------------------------- 
-0--0--0-0-x-x-x-x-x-x-x-x--0--0--0-0-x-x-x-x-x-3-3-3-3----------------------- 
-0--0--0-0-1/3-3-3-3-3-3-3--0--0--0-0-1/5-5-5-5------------------------------- 
-0--0--0-0------------------0--0--0-0----------------------------------------- 
 Intro/Verse                                                                   
 
------------------------------------------------------------------------------ 
------------------------------------------------------------------------------ 
-----------3/5-5-5-5-5-5-5------------3/7-7-10-10-7-7-10-10------------------- 
-0--0--0-0-x-x-x-x-x-x-x-x--0--0--0-0-x-x-x--x--x-x-x--x--x------------------- 
-0--0--0-0-1/3-3-3-3-3-3-3--0--0--0-0-1/5-5--8--8-5-5--8--8------------------- 
-0--0--0-0------------------0--0--0-0----------------------------------------- 
                                                                               
 
------------------------------------------------------------------------------ 
------------------------------------------------------------------------------ 
-----------3/5-5-5-5-5-5-5------------3/7-7-7-7------------------------------- 
-0--0--0-0-x-x-x-x-x-x-x-x--0--0--0-0-x-x-x-x-x-3-3-3-3----------------------- 
-0--0--0-0-1/3-3-3-3-3-3-3--0--0--0-0-1/5-5-5-5------------------------------- 
-0--0--0-0------------------0--0--0-0----------------------------------------- 
                                                                               
 
------------------------------------------------------------------------------ 
------------------------------------------------------------------------------ 
-----------3/5-5-5-5---------------------------------------------------------- 
-0--0--0-0-x-x-x-x-x-2-2-2-2-0-0-0-------------------------------------------- 
-0--0--0-0-1/3-3-3-3---------0-0-0-------------------------------------------- 
-0--0--0-0-------------------0-0-0-------------------------------------------- 
                                                                               
 
------------------------------------------------------------------------------ 
------------------------------------------------------------------------------ 
------------------------------------------------------------------------------ 
-0--0--0-0--/10-10-10-10-10-10-10-10--0--0--0-0--/12-12-12-12-3-3-3-3--------- 
-0--0--0-0--/10-10-10-10-10-10-10-10--0--0--0-0--/12-12-12-12-3-3-3-3--------- 
-0--0--0-0--/10-10-10-10-10-10-10-10--0--0--0-0--/12-12-12-12-3-3-3-3--------- 
 Heavy Part                                                                    
 
------------------------------------------------------------------------------ 
------------------------------------------------------------------------------ 
------------------------------------------------------------------------------ 
-0--0--0-0--/10-10-10-10-10-10-10-10--0--0--0-0--/12-12-15-15-12-12-15-15----- 
-0--0--0-0--/10-10-10-10-10-10-10-10--0--0--0-0--/12-12-15-15-12-12-15-15----- 
-0--0--0-0--/10-10-10-10-10-10-10-10--0--0--0-0--/12-12-15-15-12-12-15-15----- 
                                                                               
 
------------------------------------------------------------------------------ 
------------------------------------------------------------------------------ 
------------------------------------------------------------------------------ 
-0--0--0-0--/10-10-10-10-10-10-10-10--0--0--0-0--/12-12-12-12-3-3-3-3--------- 
-0--0--0-0--/10-10-10-10-10-10-10-10--0--0--0-0--/12-12-12-12-3-3-3-3--------- 
-0--0--0-0--/10-10-10-10-10-10-10-10--0--0--0-0--/12-12-12-12-3-3-3-3--------- 
                                                                               
 
------------------------------------------------------------------------------ 
------------------------------------------------------------------------------ 
------------------------------------------------------------------------------ 
-0--0--0-0--/10-10-10-10-2-2-2-2--0--0--0-0--/12-12-15-15-12-12-15-15--------- 
-0--0--0-0--/10-10-10-10-2-2-2-2--0--0--0-0--/12-12-15-15-12-12-15-15--------- 
-0--0--0-0--/10-10-10-10-2-2-2-2--0--0--0-0--/12-12-15-15-12-12-15-15--------- 
                                                                               
 
------------------------------------------------------------------------------ 
------------------------------------------------------------------------------ 
-------------7--------------7------------------------------------------------- 
-0--0--0-0-0-7--0--0--0-0-0-7--5--5--5-5-5-5--8--8--8-8-8-8--10--10--10-10---- 
-0--0--0-0-0-5--0--0--0-0-0-5--5--5--5-5-5-5--8--8--8-8-8-8--10--10--10-10---- 
-0--0--0-0-0-0--0--0--0-0-0-0--5--5--5-5-5-5--8--8--8-8-8-8--10--10--10-10---- 
 Pre-chorus                                                                    
 
-------|---------------------------------------------------------------------- 
-------|---------------------------------------------------------------------- 
-------|---------9-10---------9-5---------9-10--------------9-5--------------- 
-10-10-|-5-5-555-x-x--7-7-777-x-x-8-8-888-x-x--10-10-101010-x-x--------------- 
-10-10-|-5-5-555-7-8--7-7-777-7-3-8-8-888-7-8--10-10-101010-7-3--------------- 
-10-10-|-5-5-555------7-7-777-----8-8-888------10-10-101010------------------- 
         Chorus (Life is.. a bullet)                                           
 
------------------------------------------------------------------------------ 
------------------------------------------------------------------------------ 
---------9-10---------9-10---------9-10---------------14-10------------------- 
-5-5-555-x-x--7-7-777-x-x--8-8-888-x-x--10-10--101010-x--x-------------------- 
-5-5-555-7-8--7-7-777-7-8--8-8-888-7-8--10-10--101010-12-8-------------------- 
-5-5-555------7-7-777------8-8-888------10-10--101010------------------------- 
                                                                               
 
--------------|--------------------------------------------------------------- 
--------------|--------------------------------------------------------------- 
--------------|---------------------------9--------------------10------------- 
--------------|--8----7h8p7--3h5p3------7-------7h8--7-3-----7---------10-10-- 
---8---7-8-5--|--8----7h8p7--3h5p3----8---------7h8--7-3---8-----------10-10-- 
-0---7--------|--8----7h8p7--3h5p3--0-------x-x-7h8--7-3-0---------x-x-10-10-- 
 Fill 1          Bridge                                                        
 
-----------------------|------------------------------------------------------ 
-----------------------|------------------------------------------------------ 
-------9-----------10--|---------7-7-7-7-9-9-9-9-10101010---------7-7-7-7-9-9- 
-----7-----------7-----|-5-5-5-5-x-x-x-x-x-x-x-x-x-x-x-x--7-7-7-7-x-x-x-x-x-x- 
---8-----------8-------|-5-5-5-5-5-5-5-5-7-7-7-7-8-8-8-8--7-7-7-7-5-5-5-5-7-7- 
-0-----------0---------|-5-5-5-5--------------------------7-7-7-7------------- 
                                                                               
 
------------------------------------------------------------------------------ 
------------------------------------------------------------------------------ 
-9-9-10101010---------7-7-7-7-9-9-9-9-10101010-------------7-7-7-7-9-9-9-9-10- 
-x-x-x-x-x-x--8-8-8-8-x-x-x-x-x-x-x-x-x-x-x-x--10-10-10-10-x-x-x-x-x-x-x-x-x-- 
-7-7-8-8-8-8--8-8-8-8-5-5-5-5-7-7-7-7-8-8-8-8--10-10-10-10-5-5-5-5-7-7-7-7-8-- 
--------------8-8-8-8--------------------------10-10-10-10-------------------- 
                                                                               
 
------------------------------------------------------------------------------ 
------------------------------------------------------------------------------ 
-101010----------------------------------------------------------------------- 
-x-x-x------------------------------------------------------------------------ 
-8-8-8------------------------------------------------------------------------ 
------------------------------------------------------------------------------ 
                                                                               
 
------------------------------------------------------------------------------ 
------------------------------------------------------------------------------ 
---10---9-10-7----10---9-10-7-------10---9-10-7----10---9-10-7---------------- 
-0-x--7-x-x--x--0-x--7-x-x--x-----5-x--5-x-x--x--5-x--5-x-x--x---------------- 
-0-8--7-7-8--5--0-8--7-7-8--5-----5-8--5-7-8--5--5-8--5-7-8--5---------------- 
-0----7---------0----7------------5----5---------5----5----------------------- 
 Fill 2 (Similar to Fill 1)                                                    
 
------------------------------------------------------------------------------ 
------------------------------------------------------------------------------ 
---10---9-10-7----10---9-10-7--------10----9-10-7-----10----9-10-7------------ 
-8-x--8-x-x--x--8-x--8-x-x--x-----10-x--10-x-x--x--10-x--10-x-x--x------------ 
-8-8--8-7-8--5--8-8--8-7-8--5-----10-8--10-7-8--5--10-8--10-7-8--5------------ 
-8----8---------8----8------------10----10---------10----10------------------- 
                                                                               
 
------------------------------------------------------------------------------ 
------------------------------------------------------------------------------ 
-----------------7-7--7-7-7-7-7-----------------10-10--10-10-10-10-10--------- 
-----------------x-x--x-x-x-x-x-----------------x--x---x--x--x--x--x---------- 
-0-0-0-0-0-0-0-0-5-5--5-5-5-5-5-0-0-0-0-0-0-0-0-8--8---8--8--8--8--8---------- 
-0-0-0-0-0-0-0-0----------------0-0-0-0-0-0-0-0------------------------------- 
 Ending ------PM                ------PM-------                                
 
------------------------------------------------------------------------------ 
------------------------------------------------------------------------------ 
-----------------7-7--7-7-7-7-7-----------------10-10--10-10-10-10-10--------- 
-----------------x-x--x-x-x-x-x-----------------x--x---x--x--x--x--x---------- 
-5-5-5-5-5-5-5-5-5-5--5-5-5-5-5-8-8-8-8-8-8-8-8-8--8---8--8--8--8--8---------- 
-5-5-5-5-5-5-5-5----------------8-8-8-8-8-8-8-8------------------------------- 
 -----PM--------                ------PM-------                                
 
------------------------------------------------------------------------------ 
------------------------------------------------------------------------------ 
-------------------------5-5--5-5-5-5-5--------------------------------------- 
-------------------------x-x--x-x-x-x-x-----12------------------------------ 
-10-10-10-10-10-10-10-10-3-3--3-3-3-3-3-----12------------------------------ 
-10-10-10-10-10-10-10-10--------------------12------------------------------ 
 ---------PM------------                                                       
 
 
_______________________________________________________ 
Contribuição: Roberto Cruz([email protected]) 

	  

Full key step upFull key step up
Half key step upHalf key step up
Half key step downHalf key step down
Full key step downFull key step down
Search Paypal
auto scroll beats size up size down change color hide chords drawings
tab show chords e-chords YouTube Clip e-chords hide all tabs e-chords go to top tab