Papa Roach

home > Papa Roach

Last Resort Tab

Papa Roach

Difficulty: BeginnerBeginner

by NHRA

tuner correct add songbook print version text version save to e-mail
chordsukulelecavacokeyboardtabbassdrummharmonicsflute Guitar Pro
chords

Last Resort

  		Intro 
 
Guitar 1 Play Whole Song 
E|-----------------------------| 
B|-----------------------------| 
G|-----------------------------| 
D|-9-9---7-7---5-5---4-4---7-7-| 
A|-7-7---5-5---3-3---2-2---5-5-| 
E|-----------------------------| 
 
Guitar 2 
E|--------------------------------------------------------------------------------| 
B|--------------------------------------------------------------------------------| 
G|--------------------------------------------------------------------------------| 
D|------------9------------------9------------------9------------------9----------| 2x 
A|-7--10-9-10---10-9-10---9-10-9---10-9-10---9-10-9---10-9-10---9-10-9---10-9-10--| 
E|----------------------11-----------------10-----------------9-------------------| 
 
 
E|--------------------------------------------------------------------------------| 
B|--------------------------------------------------------------------------------| 
G|--------------------------------------------------------------------------------| 
D|------------9------------------9------------------9------------------9----------|  Palm  
A|-7--10-9-10---10-9-10---9-10-9---10-9-10---9-10-9---10-9-10---9-10-9---10-9-10--|  Muted 
E|----------------------11-----------------10-----------------9-------------------| 
 
Chorus 1: 
E|---------------------------------------------------------------------------| 
B|---------------------------------------------------------------------------| 
G|-9-9-9-9-9-9-9-5-5-5-5-5-5-5-5-11-11-11-11-12-12-12-12-14-14-14-14-9-9-9-9-| 
D|-9-9-9-9-9-9-9-5-5-5-5-5-5-5-5-11-11-11-11-12-12-12-12-14-14-14-14-9-9-9-9-| 
A|-7-7-7-7-7-7-7-3-3-3-3-3-3-3-3--9--9--9--9-10-10-10-10-14-14-14-14-7-7-7-7-| 
E|---------------------------------------------------------------------------| 
 
Chorus 2: 
E|---------------------------------------------------------------| 
B|---------------------------------------------------------------| 
G|-9-9-9-9-9-9-9-5-5-5-5-5-5-5-5-----------------4-4-4-4-4-4-4-4-| 
D|-9-9-9-9-9-9-9-5-5-5-5-5-5-5-5-5-5-5-5-5-5-5-5-4-4-4-4-4-4-4-4-| 
A|-7-7-7-7-7-7-7-5-5-5-5-5-5-5-5-5-5-5-5-5-5-5-5-2-2-2-2-2-2-2-2-| 
E|-------------------------------3-3-3-3-3-3-3-3-----------------| 
 
Interlude: 
E|-------------------------| 
B|-------------------------| 
G|-------------------------| 
D|-9-9--7-7--5-5--4-4--7-7-| 
A|-9-9--7-7--5-5--4-4--7-7-| 
E|-7-7--5-5--3-3--2-2--5-5-| 
 
This is an easy song to learn. It only took me a day. 
 
 

	  

Search Paypal
auto scroll beats size up size down change color hide chords drawings
tab show chords e-chords YouTube Clip e-chords hide all tabs e-chords go to top tab