Papa Roach

home > Papa Roach

Fear Hate Love Tab

Papa Roach

Difficulty: nolevelnolevel

by andrsouza

tuner correct add songbook print version text version save to e-mail
chordsukulelecavacokeyboardtabbassdrumsharmonicsflute Guitar Pro
chords

Fear Hate Love

  		Intro/Post-Chorus/Outro 
D|-------------------------------------------------------------------------------------| 
A|-------------------------------------------------------------------------------------| 
F|---------------------------------------3-3-3-3-3-2---3-3-3-3-------------------------| 
C|---------------3-----------2h3p2-------3-3-3-3-3-2---3-3-3-3-------------------------| 
G|-----------3h5-------------------3-0---1-1-1-1-1-0---1-1-1-1-3h5-3h5-----------------| 
C|---3br-0-0---------3br-0-0-----------------------------------------------------------| 

D|-------------------------------------------------------------------------------------| 
A|-------------------------------------------------------------------------------------| 
F|---------------------------------------3-3-3-3-3-2---3-3-3-3-------------------------| 
C|---------------3-----------2h3p2-------3-3-3-3-3-2---3-3-3-3--5h7--------------------| 
G|-----------3h5-------------------3-0---1-1-1-1-1-0---1-1-1-1-------------------------| 
C|---3br-0-0---------3br-0-0-----------------------------------------------------------| 

Verse  
D|---------------------------------------------------------------------------| 
A|---------------------------------------------------------------------------| 
F|---------------------------------------------------------------------------| 
C|---0h5p0--0h5p0--0h3p0---2h3p2p0---0h8-0h8p7-0-5-0-------------------------| 
G|---0h5p0--0h5p0--0h3p0---2h3p2p0---0h8-0h8p7-0-5-0-------------------------| x3 
C|---0h5p0--0h5p0--0h3p0---2h3p2p0---0h8-0h8p7-0-5-0-3br---------------------| 

D|---------------------------------------------------------------------------| 
A|---------------------------------------------------------------------------| 
F|---------------------------------------------------------------------------| 
C|---0h5p0--0h5p0--0h3p0---2h3p2p0---0h8-0h8p7-0-5-0-------------------------| 
G|---0h5p0--0h5p0--0h3p0---2h3p2p0---0h8-0h8p7-0-5-0-3h5-3h5-----------------|  
C|---0h5p0--0h5p0--0h3p0---2h3p2p0---0h8-0h8p7-0-5-0-------------------------| 

D|---------------------------------------------------------------------------| 
A|---------------------------------------------------------------------------| 
F|---5-------------7---------------------------------------------------------| 
C|---5-------------6---------------------------------------------------------| 
G|---3-------------5---------------------------------------------------------| 
C|---------------------------------------------------------------------------| 

Chorus 
D|-----------------------------------------------------------------------------------| 
A|-----------------------------------------------------------------------------------| 
F|-----------------------------------------------------------------------------------| 
C|---0-0-0-0-0-0-0-0----3-3-3-3-3-3-3-3----8-8-8-8-8-8-8-8-8-8-8-8-8h10-7------------| 
G|---0-0-0-0-0-0-0-0----3-3-3-3-3-3-3-3----8-8-8-8-8-8-8-8-8-8-8-8-8h10-7------------| 
C|---0-0-0-0-0-0-0-0----3-3-3-3-3-3-3-3----8-8-8-8-8-8-8-8-8-8-8-8-8h10-7------------| 

D|-----------------------------------------------------------------------------------| 
A|-----------------------------------------------------------------------------------| 
F|-----------------------------------------------------------------------------------| 
C|---0-0-0-0-0-0-0-0----3-3-3-3-3-3-3-3----5-5-5-5-5-5-5-5-5-5-5-5-5-5-5-5-----------| 
G|---0-0-0-0-0-0-0-0----3-3-3-3-3-3-3-3----5-5-5-5-5-5-5-5-5-5-5-5-5-5-5-5-----------| 
C|---0-0-0-0-0-0-0-0----3-3-3-3-3-3-3-3----5-5-5-5-5-5-5-5-5-5-5-5-5-5-5-5-----------| 

D|-----------------------------------------------------------------------------------| 
A|-----------------------------------------------------------------------------------| 
F|-----------------------------------------------------------------------------------| 
C|---0-0-0-0-0-0-0-0----3-3-3-3-3-3-3-3----8-8-8-8-8-8-8-8-8-8-8-8-8h10-7------------| 
G|---0-0-0-0-0-0-0-0----3-3-3-3-3-3-3-3----8-8-8-8-8-8-8-8-8-8-8-8-8h10-7------------| 
C|---0-0-0-0-0-0-0-0----3-3-3-3-3-3-3-3----8-8-8-8-8-8-8-8-8-8-8-8-8h10-7------------| 


D|-----------------------------------------------------------------------------------| 
A|-----------------------------------------------------------------------------------| 
F|-----------------------------------------------------------------------------------| 
C|---0-0-0-0-0-0-0-0----8-8-8-8-8-8-8-8----5-5-5-5-5-5-5-5-5-5-5-5-5-5---------------| 
G|---0-0-0-0-0-0-0-0----8-8-8-8-8-8-8-8----5-5-5-5-5-5-5-5-5-5-5-5-5-5---------------| 
C|---0-0-0-0-0-0-0-0----8-8-8-8-8-8-8-8----5-5-5-5-5-5-5-5-5-5-5-5-5-5--0-3b---------| 

Post-Chorus 
D|-------------------------------------------------------------------------------------| 
A|-------------------------------------------------------------------------------------| 
F|---------------------------------------3-3-3-3-3-2---3-3-3-3-------------------------| 
C|---------------3-----------2h3p2-------3-3-3-3-3-2---3-3-3-3-------------------------| 
G|-----------3h5-------------------3-0---1-1-1-1-1-0---1-1-1-1-3h5-3h5-----------------| 
C|---3br-0-0---------3br-0-0-----------------------------------------------------------| 

D|-------------------------------------------------------------------------------------| 
A|-------------------------------------------------------------------------------------| 
F|---------------------------------------3-3-3-3-3-2---3-3-3-3-------------------------| 
C|---------------3-----------2h3p2-------3-3-3-3-3-2---3-3-3-3--5h7--------------------| 
G|-----------3h5-------------------3-0---1-1-1-1-1-0---1-1-1-1-------------------------| 
C|---3br-0-0---------3br-0-0-----------------------------------------------------------| 

verse 2 
D|---------------------------------------------------------------------------| 
A|---------------------------------------------------------------------------| 
F|---------------------------------------------------------------------------| 
C|---0h5p0--0h5p0--0h3p0---2h3p2p0---0h8-0h8p7-0-5-0-------------------------| 
G|---0h5p0--0h5p0--0h3p0---2h3p2p0---0h8-0h8p7-0-5-0-------------------------| x3 
C|---0h5p0--0h5p0--0h3p0---2h3p2p0---0h8-0h8p7-0-5-0-3br---------------------| 

D|---------------------------------------------------------------------------| 
A|---------------------------------------------------------------------------| 
F|---------------------------------------------------------------------------| 
C|---0h5p0--0h5p0--0h3p0---2h3p2p0---0h8-0h8p7-0-5-0-------------------------| 
G|---0h5p0--0h5p0--0h3p0---2h3p2p0---0h8-0h8p7-0-5-0-3h5-3h5-----------------|  
C|---0h5p0--0h5p0--0h3p0---2h3p2p0---0h8-0h8p7-0-5-0-------------------------| 

D|---------------------------------------------------------------------------| 
A|---------------------------------------------------------------------------| 
F|---5-------------7---------------------------------------------------------| 
C|---5-------------6---------------------------------------------------------| 
G|---3-------------5---------------------------------------------------------| 
C|---------------------------------------------------------------------------| 

Chorus 2 
D|-----------------------------------------------------------------------------------| 
A|-----------------------------------------------------------------------------------| 
F|-----------------------------------------------------------------------------------| 
C|---0-0-0-0-0-0-0-0----3-3-3-3-3-3-3-3----8-8-8-8-8-8-8-8-8-8-8-8-8h10-7------------| 
G|---0-0-0-0-0-0-0-0----3-3-3-3-3-3-3-3----8-8-8-8-8-8-8-8-8-8-8-8-8h10-7------------| 
C|---0-0-0-0-0-0-0-0----3-3-3-3-3-3-3-3----8-8-8-8-8-8-8-8-8-8-8-8-8h10-7------------| 

D|-----------------------------------------------------------------------------------| 
A|-----------------------------------------------------------------------------------| 
F|-----------------------------------------------------------------------------------| 
C|---0-0-0-0-0-0-0-0----3-3-3-3-3-3-3-3----5-5-5-5-5-5-5-5-5-5-5-5-5-5-5-5-----------| 
G|---0-0-0-0-0-0-0-0----3-3-3-3-3-3-3-3----5-5-5-5-5-5-5-5-5-5-5-5-5-5-5-5-----------| 
C|---0-0-0-0-0-0-0-0----3-3-3-3-3-3-3-3----5-5-5-5-5-5-5-5-5-5-5-5-5-5-5-5-----------| 

D|-----------------------------------------------------------------------------------| 
A|-----------------------------------------------------------------------------------| 
F|-----------------------------------------------------------------------------------| 
C|---0-0-0-0-0-0-0-0----3-3-3-3-3-3-3-3----8-8-8-8-8-8-8-8-8-8-8-8-8h10-7------------| 
G|---0-0-0-0-0-0-0-0----3-3-3-3-3-3-3-3----8-8-8-8-8-8-8-8-8-8-8-8-8h10-7------------| 
C|---0-0-0-0-0-0-0-0----3-3-3-3-3-3-3-3----8-8-8-8-8-8-8-8-8-8-8-8-8h10-7------------| 


D|-----------------------------------------------------------------------------------| 
A|-----------------------------------------------------------------------------------| 
F|-----------------------------------------------------------------------------------| 
C|---0-0-0-0-0-0-0-0----8-8-8-8-8-8-8-8----5-5-5-5-5-5-5-5-5-5-5-5-5-5---------------| 
G|---0-0-0-0-0-0-0-0----8-8-8-8-8-8-8-8----5-5-5-5-5-5-5-5-5-5-5-5-5-5---------------| 
C|---0-0-0-0-0-0-0-0----8-8-8-8-8-8-8-8----5-5-5-5-5-5-5-5-5-5-5-5-5-5--0-3b---------| 

Bridge 
D|-----------------------------------------------------------------------------------| 
A|-----------------------------------------------------------------------------------| 
F|-----------------------------------------------------------------------------------| 
C|----000-0-0-0---333-3-3-3---555-5-5-5---888-8-8-8---5h7-7-5h7-7-5h7----------------| 
G|----000-0-0-0---333-3-3-3---555-5-5-5---888-8-8-8---5h7-7-5h7-7-5h7----------------| 
C|----000-0-0-0---333-3-3-3---555-5-5-5---888-8-8-8---5h7-7-5h7-7-5h7----------------| 
      xxx x x     xxx x x     xxx x x     xxx x x     

D|-----------------------------------------------------------------------------------| 
A|-----------------------------------------------------------------------------------| 
F|-----------------------------------------------------------------------------------| 
C|----000-0-0-0---333-3-3-3---555-5-5-5---888-8-8-8---5-3-3--3-5-3-3-----------------| 
G|----000-0-0-0---333-3-3-3---555-5-5-5---888-8-8-8---5-3-3--3-5-3-3-----------------| 
C|----000-0-0-0---333-3-3-3---555-5-5-5---888-8-8-8---5-3-3--3-5-3-3-----------------| 
      xxx x x     xxx x x     xxx x x     xxx x x     

D|-----------------------------------------------------------------------------------| 
A|-----------------------------------------------------------------------------------| 
F|-----------------------------------------------------------------------------------| 
C|----000-0-0-0---333-3-3-3---555-5-5-5---888-8-8-8---5h7-7-5h7-7-5h7----------------| 
G|----000-0-0-0---333-3-3-3---555-5-5-5---888-8-8-8---5h7-7-5h7-7-5h7----------------| 
C|----000-0-0-0---333-3-3-3---555-5-5-5---888-8-8-8---5h7-7-5h7-7-5h7----------------| 
      xxx x x     xxx x x     xxx x x     xxx x x     

D|-----------------------------------------------------------------------------------| 
A|-----------------------------------------------------------------------------------| 
F|-----------------------------------------------------------------------------------| 
C|----000-0-0-0---333-3-3-3---555-5-5-5---888-8-8-8---5-3-3--3-5-3-3-----------------| 
G|----000-0-0-0---333-3-3-3---555-5-5-5---888-8-8-8---5-3-3--3-5-3-3-----------------| 
C|----000-0-0-0---333-3-3-3---555-5-5-5---888-8-8-8---5-3-3--3-5-3-3-----------------| 
      xxx x x     xxx x x     xxx x x     xxx x x     

D|-----------------------------------------------------------------------------------| 
A|-----------------------------------------------------------------------------------| 
F|-----------------------------------------------------------------------------------| 
C|----0---------3--------8-----------------------------------------------------------| 
G|----0---------3--------8-----------------------------------------------------------| 
C|----0---------3--------8-----------------------------------------------------------| 

D|-----------------------------------------------------------------------------------| 
A|-----------------------------------------------------------------------------------| 
F|-----------------------------------------------------------------------------------| 
C|----0-------8--------5------3------------------------------------------------------| 
G|----0-------8--------5------3------------------------------------------------------| 
C|----0-------8--------5------3---3b-------------------------------------------------| 

Chorus 3 
D|-----------------------------------------------------------------------------------| 
A|-----------------------------------------------------------------------------------| 
F|-----------------------------------------------------------------------------------| 
C|---0-0-0-0-0-0-0-0----3-3-3-3-3-3-3-3----8-8-8-8-8-8-8-8-8-8-8-8-8h10-7------------| 
G|---0-0-0-0-0-0-0-0----3-3-3-3-3-3-3-3----8-8-8-8-8-8-8-8-8-8-8-8-8h10-7------------| 
C|---0-0-0-0-0-0-0-0----3-3-3-3-3-3-3-3----8-8-8-8-8-8-8-8-8-8-8-8-8h10-7------------| 

D|-----------------------------------------------------------------------------------| 
A|-----------------------------------------------------------------------------------| 
F|-----------------------------------------------------------------------------------| 
C|---0-0-0-0-0-0-0-0----3-3-3-3-3-3-3-3----5-5-5-5-5-5-5-5-5-5-5-5-5-5-5-5-----------| 
G|---0-0-0-0-0-0-0-0----3-3-3-3-3-3-3-3----5-5-5-5-5-5-5-5-5-5-5-5-5-5-5-5-----------| 
C|---0-0-0-0-0-0-0-0----3-3-3-3-3-3-3-3----5-5-5-5-5-5-5-5-5-5-5-5-5-5-5-5-----------| 

D|-----------------------------------------------------------------------------------| 
A|-----------------------------------------------------------------------------------| 
F|-----------------------------------------------------------------------------------| 
C|---0-0-0-0-0-0-0-0----3-3-3-3-3-3-3-3----8-8-8-8-8-8-8-8-8-8-8-8-8h10-7------------| 
G|---0-0-0-0-0-0-0-0----3-3-3-3-3-3-3-3----8-8-8-8-8-8-8-8-8-8-8-8-8h10-7------------| 
C|---0-0-0-0-0-0-0-0----3-3-3-3-3-3-3-3----8-8-8-8-8-8-8-8-8-8-8-8-8h10-7------------| 


D|-----------------------------------------------------------------------------------| 
A|-----------------------------------------------------------------------------------| 
F|-----------------------------------------------------------------------------------| 
C|---0-0-0-0-0-0-0-0----8-8-8-8-8-8-8-8----5-5-5-5-5-5-5-5-5-5-5-5-5-5---------------| 
G|---0-0-0-0-0-0-0-0----8-8-8-8-8-8-8-8----5-5-5-5-5-5-5-5-5-5-5-5-5-5---------------| 
C|---0-0-0-0-0-0-0-0----8-8-8-8-8-8-8-8----5-5-5-5-5-5-5-5-5-5-5-5-5-5--0-3b---------| 

Outro 
D|-------------------------------------------------------------------------------------| 
A|-------------------------------------------------------------------------------------| 
F|---------------------------------------3-3-3-3-3-2---3-3-3-3-------------------------| 
C|---------------3-----------2h3p2-------3-3-3-3-3-2---3-3-3-3-------------------------| 
G|-----------3h5-------------------3-0---1-1-1-1-1-0---1-1-1-1-3h5-3h5-----------------| 
C|---3br-0-0---------3br-0-0-----------------------------------------------------------| 

D|-------------------------------------------------------------------------------------| 
A|-------------------------------------------------------------------------------------| 
F|---------------------------------------3-3-3-3-3-2---3-3-3-3-------------------------| 
C|---------------3-----------2h3p2-------3-3-3-3-3-2---3-3-3-3--5h7p5-3----------------| 
G|-----------3h5-------------------3-0---1-1-1-1-1-0---1-1-1-1-------------------------| 
C|---3br-0-0---------3br-0-0-----------------------------------------------------------| 


************************************ 

| /   slide up 
| \   slide down 
| h   hammer-on 
| p   pull-off 
| ~   vibrato 
| +   harmonic 
| x   Mute note 
| b   Bend 
| pb  Pre-bend 
| br  Bend release 
| pbr Pre-bend release 
| brb Bend release bend 

************************************ 
	  

Search Paypal
auto scroll beats size up size down change color hide chords drawings
tab show chords e-chords YouTube Clip e-chords hide all tabs e-chords go to top tab