Papa Roach

home > Papa Roach

Face Everything And Rise Tab

Papa Roach

Difficulty: BeginnerBeginner

by PAULLET3

tuner correct add songbook print version text version save to e-mail
chordsukulelecavacokeyboardtabbassdrumsharmonicsflute Guitar Pro
chords

Face Everything And Rise

  		 
Intro 1: 
D|-----------------------| 
A|-----------------------| 
F|-----------------------| 
C|-----------------------| 
G|-----------------------| 
C|-0-0-0-7-5-7-0-0-10-7-8| 

D|----------------------| 
A|----------------------| 
F|----------------------| 
C|----------------------| 
G|----------------------| 
C|-0-0-0-7-5-7-0-0-1-1-1| 

D|-----------------------| 
A|-----------------------| 
F|-----------------------| 
C|-----------------------| 
G|-----------------------| 
C|-0-0-0-7-5-7-0-0-10-7-8| 

D|----------------------| 
A|----------------------| 
F|----------------------| 
C|----------------------| 
G|----------------------| 
C|-0-0-0-7-5-7-0-0-1-1-1| 
Intro 2: 
D|-----------------------| 
A|-----------------------| 
F|-----------------------| 
C|-0-0-0-7-5-7-0-0-10-7-8| 
G|-0-0-0-7-5-7-0-0-10-7-8| 
C|-0-0-0-7-5-7-0-0-10-7-8| 

D|----------------------| 
A|----------------------| 
F|----------------------| 
C|-0-0-0-7-5-7-0-0-1-1-1| 
G|-0-0-0-7-5-7-0-0-1-1-1| 
C|-0-0-0-7-5-7-0-0-1-1-1| 

D|-----------------------| 
A|-----------------------| 
F|-----------------------| 
C|-0-0-0-7-5-7-0-0-10-7-8| 
G|-0-0-0-7-5-7-0-0-10-7-8| 
C|-0-0-0-7-5-7-0-0-10-7-8| 

D|----------------------| 
A|----------------------| 
F|----------------------| 
C|-0-0-0-7-5-7-0-0-1-1-1| 
G|-0-0-0-7-5-7-0-0-1-1-1| 
C|-0-0-0-7-5-7-0-0-1-1-1| 
Verse: 
D|-------------------------| 
A|-------------------------| 
F|-------------------------| 
C|-------------------------| 
G|-------------------------| 
C|-0-0-0-7-5-7-----0-10-7-8| 

D|----------------------| 
A|----------------------| 
F|----------------------| 
C|----------------------| 
G|----------------------| 
C|-0-0-0-7-5-7-----0-1-1| 

D|-------------------------| 
A|-------------------------| 
F|-------------------------| 
C|-------------------------| 
G|-------------------------| 
C|-0-0-0-7-5-7-----0-10-7-8| 

D|-------------------------| 
A|-------------------------| 
F|-------------------------| 
C|-------------------------| 
G|-------------------------| 
C|-0-0-0-7-5-7---0-0--0-1-1| 
Pre-Chorus 
D|-------------------------| 
A|-------------------------| 
F|-------------------------| 
C|-------------------------| 
G|-------------------------| 
C|-0-0-0-7-5-7-0-0-0-10-7-8| 

D|------------------------| 
A|------------------------| 
F|------------------------| 
C|------------------------| 
G|------------------------| 
C|-0-0-0-7-5-7-0-0-0-1-1-1| 

D|-------------------------| 
A|-------------------------| 
F|-------------------------| 
C|-------------------------| 
G|-------------------------| 
C|-0-0-0-7-5-7-0-0-0-10-7-8| 

D|------------------------| 
A|------------------------| 
F|------------------------| 
C|------------------------| 
G|------------------------| 
C|-0-0-0-7-5-7-0-0-0-1-1-1| 
Chorus: 
D|--------------------------| 
A|--------------------------| 
F|--------------------------| 
C|-8-8-8-8-8-8--5-5-10-10-10| 
G|-8-8-8-8-8-8--5-5-10-10-10| 
C|-8-8-8-8-8-8--5-5-10-10-10| 

D|---------------------| 
A|---------------------| 
F|---------------------| 
C|-0-0-0-0-0-0-10-10-10| 
G|-0-0-0-0-0-0-10-10-10| 
C|-0-0-0-0-0-0-10-10-10| 

D|--------------------------| 
A|--------------------------| 
F|--------------------------| 
C|-8-8-8-8-8-8--5-5-10-10-10| 
G|-8-8-8-8-8-8--5-5-10-10-10| 
C|-8-8-8-8-8-8--5-5-10-10-10| 

D|---------------------| 
A|---------------------| 
F|---------------------| 
C|-0-0-0-0-0-0-10-10-10| 
G|-0-0-0-0-0-0-10-10-10| 
C|-0-0-0-0-0-0-10-10-10| 

D|-------------------------| 
A|-------------------------| 
F|-------------------------| 
C|-8-8-8-8-8-8-5-5-5-5-10/-| 
G|-8-8-8-8-8-8-5-5-5-5-10/-| 
C|-8-8-8-8-8-8-5-5-5-5-10/-| 
Repeat Intro: 
D|-----------------------| 
A|-----------------------| 
F|-----------------------| 
C|-0-0-0-7-5-7-0-0-10-7-8| 
G|-0-0-0-7-5-7-0-0-10-7-8| 
C|-0-0-0-7-5-7-0-0-10-7-8| 

D|----------------------| 
A|----------------------| 
F|----------------------| 
C|-0-0-0-7-5-7-0-0-1-1-1| 
G|-0-0-0-7-5-7-0-0-1-1-1| 
C|-0-0-0-7-5-7-0-0-1-1-1| 
Repeat Verse^ 
D|-------------------------| 
A|-------------------------| 
F|-------------------------| 
C|-------------------------| 
G|-------------------------| 
C|-0-0-0-7-5-7-----0-10-7-8| 

D|----------------------| 
A|----------------------| 
F|----------------------| 
C|----------------------| 
G|----------------------| 
C|-0-0-0-7-5-7-----0-1-1| 

D|-------------------------| 
A|-------------------------| 
F|-------------------------| 
C|-------------------------| 
G|-------------------------| 
C|-0-0-0-7-5-7-----0-10-7-8| 

D|-------------------------| 
A|-------------------------| 
F|-------------------------| 
C|-------------------------| 
G|-------------------------| 
C|-0-0-0-7-5-7---0-0--0-1-1| 
Repeat Pre-Chorus 
D|-------------------------| 
A|-------------------------| 
F|-------------------------| 
C|-------------------------| 
G|-------------------------| 
C|-0-0-0-7-5-7-0-0-0-10-7-8| 

D|------------------------| 
A|------------------------| 
F|------------------------| 
C|------------------------| 
G|-------------------1-1-1| 
C|-0-0-0-7-5-7-0-0-0-1-1-1| 

D|-------------------------| 
A|-------------------------| 
F|-------------------------| 
C|-------------------------| 
G|-------------------------| 
C|-0-0-0-7-5-7-0-0-0-10-7-8| 

D|------------------------| 
A|------------------------| 
F|------------------------| 
C|------------------------| 
G|------------------------| 
C|-0-0-0-7-5-7-0-0-0-1-1-1| 
Repeat Chorus: 
D|--------------------------| 
A|--------------------------| 
F|--------------------------| 
C|-8-8-8-8-8-8--5-5-10-10-10| 
G|-8-8-8-8-8-8--5-5-10-10-10| 
C|-8-8-8-8-8-8--5-5-10-10-10| 

D|---------------------| 
A|---------------------| 
F|---------------------| 
C|-0-0-0-0-0-0-10-10-10| 
G|-0-0-0-0-0-0-10-10-10| 
C|-0-0-0-0-0-0-10-10-10| 

D|--------------------------| 
A|--------------------------| 
F|--------------------------| 
C|-8-8-8-8-8-8--5-5-10-10-10| 
G|-8-8-8-8-8-8--5-5-10-10-10| 
C|-8-8-8-8-8-8--5-5-10-10-10| 

D|---------------------| 
A|---------------------| 
F|---------------------| 
C|-0-0-0-0-0-0-10-10-10| 
G|-0-0-0-0-0-0-10-10-10| 
C|-0-0-0-0-0-0-10-10-10| 

D|-------------------------| 
A|-------------------------| 
F|-------------------------| 
C|-8-8-8-8-8-8-5-5-5-5-10/-| 
G|-8-8-8-8-8-8-5-5-5-5-10/-| 
C|-8-8-8-8-8-8-5-5-5-5-10/-| 
Bridge: 
D|-------------------------------------------| 
A|-------------------------------------------| 
F|-------------------------------------------| 
C|-------------------------------------------| 
G|-0-0-0-----0-0-0-----0-0-0-----0-0-0-10-8-7| 
C|-0-0-0-----0-0-0-----0-0-0-----0-0-0-10-8-7| 

D|----------------------------------------------| 
A|----------------------------------------------| 
F|----------------------------------------------| 
C|----------------------------------------------| 
G|-0-0-0-----0-0-0-----0-0-0-----0-0-0-5-7-3-1-3| 
C|-0-0-0-----0-0-0-----0-0-0-----0-0-0-5-7-3-1-3| 

D|---------------------------------------------| 
A|---------------------------------------------| 
F|---------------------------------------------| 
C|---------------------------------------------| 
G|-0-0-0-----0-0-0-----0-0-0-----0-0-0-10-12-10| 
C|-0-0-0-----0-0-0-----0-0-0-----0-0-0-10-12-10| 

D|------------------------------------------| 
A|------------------------------------------| 
F|------------------------------------------| 
C|------------------------------------------| 
G|-0-0-0-----0-0-0-----0-0-0-----0-0-0-1-3-1| 
C|-0-0-0-----0-0-0-----0-0-0-----0-0-0-1-3-1| 

D|----------------------------------------------| 
A|----------------------------------------------| 
F|----------------------------------------------| 
C|----------------------------------------------| 
G|-0-0-0-----0-0-0-----0-0-0-----0-0-0-5-7-3-1-3| 
C|-0-0-0-----0-0-0-----0-0-0-----0-0-0-5-7-3-1-3| 
Repeat Pre-Chorus 
D|-------------------------| 
A|-------------------------| 
F|-------------------------| 
C|-------------------------| 
G|-------------------------| 
C|-0-0-0-7-5-7-0-0-0-10-7-8| 

D|------------------------| 
A|------------------------| 
F|------------------------| 
C|------------------------| 
G|-------------------1-1-1| 
C|-0-0-0-7-5-7-0-0-0-1-1-1| 
Repeat Chorus: 
D|--------------------------| 
A|--------------------------| 
F|--------------------------| 
C|-8-8-8-8-8-8--5-5-10-10-10| 
G|-8-8-8-8-8-8--5-5-10-10-10| 
C|-8-8-8-8-8-8--5-5-10-10-10| 

D|---------------------| 
A|---------------------| 
F|---------------------| 
C|-0-0-0-0-0-0-10-10-10| 
G|-0-0-0-0-0-0-10-10-10| 
C|-0-0-0-0-0-0-10-10-10| 

D|--------------------------| 
A|--------------------------| 
F|--------------------------| 
C|-8-8-8-8-8-8--5-5-10-10-10| 
G|-8-8-8-8-8-8--5-5-10-10-10| 
C|-8-8-8-8-8-8--5-5-10-10-10| 

D|---------------------| 
A|---------------------| 
F|---------------------| 
C|-0-0-0-0-0-0-10-10-10| 
G|-0-0-0-0-0-0-10-10-10| 
C|-0-0-0-0-0-0-10-10-10| 

D|-------------------------| 
A|-------------------------| 
F|-------------------------| 
C|-8-8-8-8-8-8-5-5-5-5-10/-| 
G|-8-8-8-8-8-8-5-5-5-5-10/-| 
C|-8-8-8-8-8-8-5-5-5-5-10/-| 
Outro: 
D|-----------------------| 
A|-----------------------| 
F|-----------------------| 
C|-0-0-0-7-5-7-0-0-10-7-8| 
G|-0-0-0-7-5-7-0-0-10-7-8| 
C|-0-0-0-7-5-7-0-0-10-7-8| 

D|----------------------| 
A|----------------------| 
F|----------------------| 
C|-0-0-0-7-5-7-0-0-1-1-1| 
G|-0-0-0-7-5-7-0-0-1-1-1| 
C|-0-0-0-7-5-7-0-0-1-1-1| 

D|-----------------------| 
A|-----------------------| 
F|-----------------------| 
C|-0-0-0-7-5-7-0-0-10-7-8| 
G|-0-0-0-7-5-7-0-0-10-7-8| 
C|-0-0-0-7-5-7-0-0-10-7-8| 

D|----------------------| 
A|----------------------| 
F|----------------------| 
C|-0-0-0-7-5-7-0-0-1-1-1| 
G|-0-0-0-7-5-7-0-0-1-1-1| 
C|-0-0-0-7-5-7-0-0-1-1-1| 
	  

Search Paypal
auto scroll beats size up size down change color hide chords drawings
tab show chords e-chords YouTube Clip e-chords hide all tabs e-chords go to top tab