Papa Roach

home > Papa Roach

Crash Tab

Papa Roach

Difficulty: nolevelnolevel

by kalilvaz

tuner correct add songbook print version text version save to e-mail
chordsukulelecavacokeyboardtabbassdrumsharmonicsflute Guitar Pro
chords

Crash

  		>>(escutem a música para pegarem o ritmo correto)<< xD 

INTRO: 
Palm Mute 

E--------------- 
B--------------- 
G--------------- 
D-7---7---8---7- 
A-5---5---8---7- 
E-5---5---6---5- 


Riff: 
                 'T'm going to crash...'  
E---------------|------- 
B---------------|------- 
G---------------|------- 
D-7---7---8---7-|--5-5-5  16x cada acorde. (palm mute)   
A-5---5---8---7-|--5-5-5      
E-5---5---6---5-|--3-3-3 

I refuse to be your victim I refuse to be your slave 
I keep on burning my bridges 
I keep on fucking up everything 
Running from desperation God knows where I've been 
I don't know where I'm headed  
But I'm going too fast I think I'm going to crash 

Pré - Chorus: 
  'I'm going to crash..'(2x)   'I'm going to crash, to CRASH!!' 
E|----------------------------|---------| 
B|----------------------------|---------| 
G|----------------------------|-------6-| 
D|-7-7-7-X--7--X--7--X--7--X--|-8--7--6-| 
A|-5-5-5-8--5--8--5--8--5--8--|-8--7--4-| 
E|-5-5-5-X--5--X--5--X--5--X--|-6--5----| 


Chorus: 

It's time for annihilation it's time to be a criminal 
E|-------------------- 
B|-------------------- 
G|-6-6--5-5--3-------- 
D|-6-6--5-5--3---3--7- 
A|-5-5--3-3--1---3--7- 
E|---------------1--5- 


No time for hesitation time to be an animal 
E|-------------------- 
B|-------------------- 
G|-6-6--5-5--3------6- 
D|-6-6--5-5--3---3--6- 
A|-5-5--3-3--1---3--4- 
E|---------------1---- 


Riff 

E---------------|------- 
B---------------|------- 
G---------------|------- 
D-7---7---8---7-|--5-5-5-   16x cada acorde. (palm mute)   
A-5---5---8---7-|--5-5-5-     
E-5---5---6---5-|--3-3-3- 

Looking at my reflection I don't like what I see 
So I ask myself a question 
Do I got what I want or do I got what I need? 
I'm not afraid of the future 
Of spinning right out of control  
I don't know where I'm headed  
But I'm going too fast I think I'm going to crash 


Pré - Chorus: 
  'I'm going to crash..'(2x)   'I'm going to crash, to CRASH!!' 
E|----------------------------|---------| 
B|----------------------------|---------| 
G|----------------------------|-------6-| 
D|-7-7-7-X--7--X--7--X--7--X--|-8--7--6-| 
A|-5-5-5-8--5--8--5--8--5--8--|-8--7--4-| 
E|-5-5-5-X--5--X--5--X--5--X--|-6--5----| 


Chorus:  >{2X}< 

It's time for annihilation it's time to be a criminal 
E|-------------------- 
B|-------------------- 
G|-6-6--5-5--3-------- 
D|-6-6--5-5--3---3--7- 
A|-5-5--3-3--1---3--7- 
E|---------------1--5- 


No time for hesitation time to be an animal 
E|-------------------- 
B|-------------------- 
G|-6-6--5-5--3------6- 
D|-6-6--5-5--3---3--6- 
A|-5-5--3-3--1---3--4- 
E|---------------1---- 

SOLO: 
BASE = Riff 

E-------------------------- 
B-------------------------- 
G-------------------------- 
D-0-/2-/3-/5-/12-\10-\8-\7- 
A-------------------------- 
E-------------------------- 

Riff: 

E---------------|------- 
B---------------|------- 
G---------------|------- 
D-7---7---8---7-|--5-5-5-   16x cada acorde. (palm mute)   
A-5---5---8---7-|--5-5-5-     
E-5---5---6---5-|--3-3-3- 

I refuse to be a victim, I don't want to fall again 
I know where I'm headed 
God knows where I've been... 

Pré - Chorus: 
  'I'm going to crash..'(2x)   'I'm going to crash, to CRASH!!' 
E|----------------------------|---------| 
B|----------------------------|---------| 
G|----------------------------|-------6-| 
D|-7-7-7-X--7--X--7--X--7--X--|-8--7--6-| 
A|-5-5-5-8--5--8--5--8--5--8--|-8--7--4-| 
E|-5-5-5-X--5--X--5--X--5--X--|-6--5----| 


Chorus:  >{2X}< 

It's time for annihilation it's time to be a criminal 
E|-------------------- 
B|-------------------- 
G|-6-6--5-5--3-------- 
D|-6-6--5-5--3---3--7- 
A|-5-5--3-3--1---3--7- 
E|---------------1--5- 


No time for hesitation time to be an animal 
E|-------------------- 
B|-------------------- 
G|-6-6--5-5--3------6- 
D|-6-6--5-5--3---3--6- 
A|-5-5--3-3--1---3--4- 
E|---------------1---- 

END: 

E|----------------------------| 
B|----------------------------| 
G|----------------------------| 
D|-7-7-7-X--7--X--7--X--7--X--|     2x 
A|-5-5-5-8--5--8--5--8--5--8--| 
E|-5-5-5-X--5--X--5--X--5--X--| 

              LIVE| LOVE | LIFE/FIGHT  
E|----------------------------| 
B|----------------------------| 
G|----------------------------| 
D|-7-7-7-X--7--X--7--X--7--X--| 
A|-5-5-5-8--5--9--5--10-5--12-| 
E|-5-5-5-X--5--X--5--X--5--X--| 

Obrigado ! ^^ 
	  

Search Paypal
auto scroll beats size up size down change color hide chords drawings
tab show chords e-chords YouTube Clip e-chords hide all tabs e-chords go to top tab