Papa Roach

home > Papa Roach

Broken As Me Tab

Papa Roach

Difficulty: nolevelnolevel

by tamamoreira

tuner correct add songbook print version text version save to e-mail
chordsukulelecavacokeyboardtabbassdrumsharmonicsflute Guitar Pro
chords

Broken As Me

  		


Intro: 

D|---------------------------------------------------------------------- 
A|---------------------------------------------------------------------- 
F|---------------------------------------------------------------------- 
C|----------------------------------------------------------------10-10- 
G|-0-0-13-10-13-0--12-13-0-12-13-15-0-0-13-10-13-0--11-11-11-10-10------ 
C|-0-0-13-10-13-0--12-13-0-12-13-15-0-0-13-10-13-0---------------------- 

D|----------------------------------------------------------------------- 
A|----------------------------------------------------------------------- 
F|----------------------------------------------------------------------- 
C|----------------------------------------------------------------------- 
G|-0-0-13-10-13-0--12-13-0-12-13-15-0-0-13-10-13-0----------------------- 
C|-0-0-13-10-13-0--12-13-0-12-13-15-0-0-13-10-13-0--12-12-12-13-12-10-12- 



verse 1 (play twice):  

D|--------------------------------------------------------------------------- 
A|--------------------------------------------------------------------------- 
F|--------------------------------------------------------------------------- 
C|---------------------------------------------------------------------10-10- 
G|------------------------------------------------------11-11-11-10-10------- 
C|-0---0-13-10-13-0---12-13-0-12-13-15-0--0-13-10-13-0----------------------- 

D|--------------------------------------------------------------------------- 
A|--------------------------------------------------------------------------- 
F|--------------------------------------------------------------------------- 
C|--------------------------------------------------------------------------- 
G|--------------------------------------------------------------------------- 
C|-0---0-13-10-13-0---12-13-0-12-13-15-0--0-13-10-13-0--12-12-12-13-12-10-12- 



PreChorus(octave chords with ??*?? played with heavy flanger effect): 

D|------------------------------------------------------------------ 
A|------------------------------------------------------------------ 
F|----------------------------------7-7-7-7-7-7-7-7-7-7-7-7-7-7-7-7- 
C|-8-8-8-7-7-7-5-5-5-1-1-1-1-3-3-3--x-x-x-x-x-x-x-x-x-x-x-x-x-x-x-x- 
G|-8-8-8-7-7-7-5-5-5-1-1-1-1-3-3-3--5-5-5-5-5-5-5-5-5-5-5-5-5-5-5-5- 
C|-8-8-8-7-7-7-5-5-5-1-1-1-1-3-3-3---------------------------------- 
                                    *******************************  

Chorus: 

D|----------------------------------------------------------------------------------------- 
A|----------------------------------------------------------------------------------------- 
F|--------------------------5--5-5-5-5-5-5-5-5--------------------------------------------- 
C|-8-x-0-x-0-x-0-3--3-3-3-3-5--5-5-5-5-5-5-5-5-8-x-0-x-0-x-0-3--3-3-3-3-5--5-5-5-5-5-5-5-5- 
G|-8-x-0-x-0-x-0-3--3-3-3-3-3--3-3-3-3-3-3-3-3-8-x-0-x-0-x-0-3--3-3-3-3-5--5-5-5-5-5-5-5-5- 
C|-8-x-0-x-0-x-0-3--3-3-3-3--------------------8-x-0-x-0-x-0-3--3-3-3-3-5--5-5-5-5-5-5-5-5- 


D|-------------------------------------------------------------------------------------------- 
A|-------------------------------------------------------------------------------------------- 
F|--------------------------5--5-5-5-5-5-5-5-5------------------------------------------------ 
C|-8-x-0-x-0-x-0-3--3-3-3-3-5--5-5-5-5-5-5-5-5-8-x-0-x-0--7-7-7-7-8-8-8-8-8-8-8-8-\-------x-1- 
G|-8-x-0-x-0-x-0-3--3-3-3-3-3--3-3-3-3-3-3-3-3-8-x-0-x-0--7-7-7-7-8-8-8-8-8-8-8-8-\-------x-1- 
C|-8-x-0-x-0-x-0-3--3-3-3-3--------------------8-x-0-x-0--7-7-7-7-8-8-8-8-8-8-8-8-\-------x-1- 


Repeat Intro 


verse 2 (notes with ??*?? are played with a heavy, swelling flanger effect on the first repeat): 

D|--------------------------------------------------------------------------- 
A|--------------------------------------------------------------------------- 
F|--------------------------------------------------------------------------- 
C|---------------------------------------------------------------------10-10- 
G|------------------------------------------------------11-11-11-10-10------- 
C|-0---0-13-10-13-0---12-13-0-12-13-15-0--0-13-10-13-0----------------------- 
   *   ************   ******************  ************ 

D|--------------------------------------------------------------------------- 
A|--------------------------------------------------------------------------- 
F|--------------------------------------------------------------------------- 
C|--------------------------------------------------------------------------- 
G|--------------------------------------------------------------------------- 
C|-0---0-13-10-13-0---12-13-0-12-13-15-0--0-13-10-13-0--12-12-12-13-12-10-12- 


Repeat PreChorus 

Repeat Chorus 


Bridge (notes with ??*?? played with heavy flanger effect): 

D|-------------------------------------- 
A|-------------------------------------- 
F|-------------------------------------- 
C|-------------------------------------- 
G|-5-5-6-5-3-5-5-5-6-5-3-5-5-5-6-5-3-5-- 
C|-------------------------------------- 
   *********************************** 

D|---------------------------------------------------------------- 
A|---------------------------------------------------------------- 
F|---------------------------------------------------------------- 
C|---------------------------------------------------------------- 
G|--------------------------------------------12h13p12------------ 
C|-0-0-13-12-0-0--000-13-12-0-0-0-0-13-12-0-0----------12p0-12h13- 

D|---------------------------------------------------------------- 
A|---------------------------------------------------------------- 
F|---------------------------------------------------------------- 
C|--------------------------------------------12h13p12------------ 
G|-----------------------------------------------------12p0-12h13- 
C|-0-0-13-12-0-0--000-13-12-0-0-0-0-13-12-0-0--------------------- 

D|-------------------------------------------------------------- 
A|-------------------------------------------------------------- 
F|-------------------------------------------------------------- 
C|-------------------------------------------------------------- 
G|-------------------------------------------------12----10-8-8- 
C|-0-0-13-12-0-0--0-0-0-13-12-0-0-0-0-13-12-0-0-12----12-------- 

D|-------------------------------------------------------------------- 
A|-------------------------------------------------------------------- 
F|---------------------------------------------------------------7~~~~ 
C|---------------------------------------------------------------x~~~~ 
G|-------------------------------------------------12----10-8-8--5~~~~ 
C|-0-0-13-12-0-0--0-0-0-13-12-0-0-0-0-13-12-0-0-12----12-------------- 
                                                                 *** 

Last Chorus: 

D|-------------------------------------------------------------------------------------------- 
A|-------------------------------------------------------------------------------------------- 
F|--------------------------5--5-5-5-5-5-5-5-5------------------------------------------------ 
C|-8-x-0-x-0-x-0-3--3-3-3-3-5--5-5-5-5-5-5-5-5-8-x-0-x-0--7-7-7-7-8-8-8-8-8-8-8-8-\-------x-1- 
G|-8-x-0-x-0-x-0-3--3-3-3-3-3--3-3-3-3-3-3-3-3-8-x-0-x-0--7-7-7-7-8-8-8-8-8-8-8-8-\-------x-1- 
C|-8-x-0-x-0-x-0-3--3-3-3-3--------------------8-x-0-x-0--7-7-7-7-8-8-8-8-8-8-8-8-\-------x-1- 


Outro (notes with ??*?? played with heavy flanger effect): 

D|-------------------------------------------------------------- 
A|-------------------------------------------------------------- 
F|-------------------------------------------------------------- 
C|-------------------------------------------------------------- 
G|-------------------------------------------------12----10-8-8- 
C|-0-0-13-12-0-0--0-0-0-13-12-0-0-0-0-13-12-0-0-12----12-------- 

D|----------------------------------------------------------- 
A|----------------------------------------------------------- 
F|------------------------------------------------------7~~~- 
C|----------------------------------------------x-3-x-1-x~~~- 
G|----------------------------------------------x-3-x-1-5~~~- 
C|-0-0-13-12-0-0--0-0-0-13-12-0-0-0-0-13-12-0-0-x-3-x-1------ 
                                                        *** 
	  

Search Paypal
auto scroll beats size up size down change color hide chords drawings
tab show chords e-chords YouTube Clip e-chords hide all tabs e-chords go to top tab