Papa Roach

home > Papa Roach

Breathe You In Tab

Papa Roach

Difficulty: nolevelnolevel

by mar%2Dgobbo

tuner correct add songbook print version text version save to e-mail
chordsukulelecavacokeyboardtabbassdrumsharmonicsflute Guitar Pro
chords

Breathe You In

  		Band:  Papa Roach 
Song:  Breathe You In 
Album: The Connection (2012) 
Tune:  Drop C# 

Tabbed by: UK ([email protected]) 

INTRO  
(0:01-0:05)  (0:06-0:11)    
D#|---|      ---|   
A#|---|      -7-| 
F#|---|      -8-| 
C#|-1-|      -8-| 
G#|-1-|      -6-| 
C#|-1-|      ---| 

VERSE (0:12-0:32) 
D#|--------------------------------------| 
A#|--------------------------------------| 
F#|--------------------------------------| 
C#|-1-1-1--4-4-4-4-4-4-4-4-6-6-6-6-6-6-6-| 
G#|-1-1-1--4-4-4-4-4-4-4-4-6-6-6-6-6-6-6-| 
C#|-1-1-1--4-4-4-4-4-4-4-4-6-6-6-6-6-6-6-| 

D#|---------------------------------------| 
A#|---------------------------------------| 
F#|---------------------------------------| 
C#|-1-1-1--9-9-9-9-9-9-9-9-6-6-6-6-4-6-4--| 
G#|-1-1-1--9-9-9-9-9-9-9-9-6-6-6-6-4-6-4--| 
C#|-1-1-1--9-9-9-9-9-9-9-9-6-6-6-6-4-6-4--| 


BRIDGE  (0:33-0:37) 
D#|-------------------------------------------------| 
A#|-------------------------------------------------| 
F#|-------------------------------------------------| 
C#|-1-1-1-1-3-3-3-3-4-4-4-4-6-6-6-6-8-8-8-8-8-8-8-8-| 
G#|-1-1-1-1-3-3-3-3-4-4-4-4-6-6-6-6-8-8-8-8-8-8-8-8-| 
C#|-1-1-1-1-3-3-3-3-4-4-4-4-6-6-6-6-8-8-8-8-8-8-8-8-| 

Chorus (0:38-0:59) 
D#|------------------------------------------------------| 
A#|------------------------------------------------------| 
F#|------------------------------------------------------| 
C#|-9-9-9-9-9-9-9-9-11-11-11-11-11-11-11-11-11-11--1-1-1-| 
G#|-9-9-9-9-9-9-9-9-11-11-11-11-11-11-11-11-11-11--1-1-1-| 
C#|-9-9-9-9-9-9-9-9-11-11-11-11-11-11-11-11-11-11--1-1-1-| 

D#|-----------------------------------------------------| 
A#|-----------------------------------------------------| 
F#|-15-15-15-15-13-13-13-13-11-11-11-11-----------------| 
C#|-x--x--x--x--x--x--x--x--x--x--x--x--4-4-4-4-4-4-4-4-| 
G#|-13-13-13-13-11-11-11-11-9--9--9--9--4-4-4-4-4-4-4-4-| 
C#|-------------------------------------4-4-4-4-4-4-4-4-| 

D#|-----------------------------------------------------| 
A#|-----------------------------------------------------| 
F#|-----------------------------------------------------| 
C#|-9-9-9-9-9-9-9-9-11-11-11-11-11-11-11-11-11-11-------| 
G#|-9-9-9-9-9-9-9-9-11-11-11-11-11-11-11-11-11-11-------| 
C#|-9-9-9-9-9-9-9-9-11-11-11-11-11-11-11-11-11-11-------| 

D#|-------------------------------------------------------------------------| 
A#|-------------------------------------------------------------------------| 
F#|---------------------------------------------------------6-6-6-6-6-6-6-6-| 
C#|-------------------------------------------------------------------------| 
G#|-------------------------------------------------------------------------| 
C#|-11-13-11-13--1-3-3-3-3-4-4-4-4---11-13-11-13--1-3-3-3-3-----------------| 



VERSE  (1:00-1:21) 
BRIDGE  (1:22-1:25) 
Chorus (1:26-1:42) 
BRIDGE  (1:43-1:47) 

SOLO  (1:48-2:25) 
D#|----------------------------------------------| 
A#|----------------------------------------------| 
F#|-11-11-11-10-10--6-6---11-11-11-10-10--6-6----| 
C#|-x--x--x---x--x--x-x---x--x--x---x--x--x-x----| 
G#|-9--9--9---8--8--4-4---9--9--9---8--8--4-4----| 
C#|----------------------------------------------| 

D#|-------------------------------------------------------------------------| 
A#|-------------------------------------------------------------------------| 
F#|----------------------------------------11-11-11--10-10--6-6-13-13-13-13-| 
C#|---------15-15-11-11--------15-15-11-11--x--x--x---x--x--x-x--x--x--x--x-| 
G#|-13-13-13------------13-13-13------------9--9--9---8--8--4-4-11-11-11-11-| 
C#|-------------------------------------------------------------------------| 

D#|-------------------------------------------------------------------------| 
A#|-------------------------------------------------------------------------| 
F#|-------------------------------------------------------------------------| 
C#|-------------------------------------------------------------------------| 
G#|-------------------------9-9-9-9----------------------11-11-11-11--------| 
C#|-11-13-11-13--1-3-3-3-3---------11-13-11-13--1-3-3-3-3-------------------| 

D#|-------------------------------------------------------------------------| 
A#|-------------------------------------------------------------------------| 
F#|-------------------------------------------------------------------------| 
C#|-----------------------------------------------------------11-11-11-1----| 
G#|------------------------13-13-13-13--------------------------------------| 
C#|-11-13-11-13--1-3-3-3-3-------------11-13-11-13--1-3-3-3-3---------------| 


Chorus (2:26-2:41) 
BRIDGE (2:42-2:47) 
SOLO (2:48-3:02) 

OUTRO  
(3:03-3:08)     
D#|-----|        
A#|-----|       
F#|-----|       
C#|-1-1-|       
G#|-1-1-|       
C#|-1-1-| 
	  

Search Paypal
auto scroll beats size up size down change color hide chords drawings
tab show chords e-chords YouTube Clip e-chords hide all tabs e-chords go to top tab