Papa Roach

home > Papa Roach

Before I Die Tab

Papa Roach

Difficulty: IntermediateIntermediate

by edsooliveira

tuner correct add songbook print version text version save to e-mail
chordsukulelecavacokeyboardtabbassdrumsharmonicsflute Guitar Pro
chords

Before I Die

  		

INTRO 
 |Rythm 
E|-----------------------------------------------------------------| 
B|-All-palm-muted--------------------------------------------------| 
G|-----------------------------------------------------------------| 
D|-------3-------3-------3-------5-------7-------7-------7------10-| 
A|-------3-------3-------3-------5-------7-------7-------7------10-| 
D|-3-3-3-3-3-3-3-3-3-3-3-3-5-5-5-5-7-7-7-7-7-7-7-7-7-7-7-710101010-| 
 |Lead                                                             | 
E|-----------------------------------------------------------------| 
B|-----------------------------------------------------------------| 
G|-------------------------------------------------------9---------| 
D|------10------10------10-------9------10------10--------------12-| 
A|-----------------------------------------------------------------| 
D|-----------------------------------------------------------------| 

VERSE 
 |Rythm 
E|-----------------------------------------------------------------| 
B|-All-palm-muted--------------------------------------------------| 
G|-----------------------------------------------------------------| 
D|-------3-------3-------3-------5-------7-------7-------7------10-| 
A|-------3-------3-------3-------5-------7-------7-------7------10-| 
D|-3-3-3-3-3-3-3-3-3-3-3-3-5-5-5-5-7-7-7-7-7-7-7-7-7-7-7-710101010-| 
 |Lead                                                             | 
E|-----------------------------------------------------------------| 
B|-------------------------8-------------------------------8-------| 
G|-----7---9-----------7-------9-------7---9-----------7-------9---| 
D|10-7---7---710-710-7---7---7---710-7---7---710-710-7---7---7---7-| 
A|-----------------------------------------------------------------| 
D|-----------------------------------------------------------------| 

PRECHORUS 
 |Rythm 
E|-----------------------------------------------------------------| 
B|-----------------------------------------------------------------| 
G|-----------------------------------------------------------------| 
D|10~~~~~~~~~~~~~~~~~~~~~~~~~~~~~~-9~~~~~~~~~~~~~~~~~~~~~~~~~~~~~~-| 
A|10~~~~~~~~~~~~~~~~~~~~~~~~~~~~~~10~~~~~~~~~~~~~~~~~~~~~~~~~~~~~~-| 
D|10~~~~~~~~~~~~~~~~~~~~~~~~~~~~~~-9~~~~~~~~~~~~~~~~~~~~~~~~~~~~~~-| 
 |Lead                                                             | 
E|-----------------------------------------------------------------| 
B|-----------------------------------------------------------------| 
G|-----------------------------------------------------------------| 
D|-----------------------------------------------------------------| 
A|-----------------------------------------------------------------| 
D|-----------------------------------------------------------------| 

CHORUS 
 |Rythm 
E|-----------------------------------------------------------------| 
B|-----------------------------------------------------------------| 
G|-----------------------------------------------------------------| 
D|-3~~-3~~-3~~-3-3~~-3-3~~-5~~~~~~-7~~-7~~-7~~-7-7~~-7-7~~10~~~~~~-| 
A|-3~~-3~~-3~~-3-3~~-3-3~~-5~~~~~~-7~~-7~~-7~~-7-7~~-7-7~~10~~~~~~-| 
D|-3~~-3~~-3~~-3-3~~-3-3~~-5~~~~~~-7~~-7~~-7~~-7-7~~-7-7~~10~~~~~~-| 
 |Lead                                                             | 
E|-----------------------------------------------------------------| 
B|-----------------------------------------------------------------| 
G|-----------------------------9~~----------------------------12~~-| 
D|10~~~9~~10~~~9~~10~~~9~~10~~~---10~~~9~~10~~~9~~10~~~9~~10~~-----| 
A|-----------------------------------------------------------------| 
D|-----------------------------------------------------------------| 

SOLO 
 |Rythm 
E|-----------------------------------------------------------------| 
B|-|In the actual song, there is no rythm guitar part during the |-| 
G|-|solo but you can play the rythm part of the chorus, it sounds|-| 
D|-|quite nice and it makes the solo kinda more epic.Maybe it's  |-| 
A|-|just me as well :P                                           |-| 
D|-----------------------------------------------------------------| 
 |Lead                                                             | 
E|-----------------------------------------------------------------| 
B|-----------------------------------------------------------------| 
G|---|Sorry, I'm working on it. I'll update as soon as possible|---| 
D|-----------------------------------------------------------------| 
A|-----------------------------------------------------------------| 
D|-----------------------------------------------------------------| 

 
	  

Search Paypal
auto scroll beats size up size down change color hide chords drawings
tab show chords e-chords YouTube Clip e-chords hide all tabs e-chords go to top tab