Panic at the disco

home > Panic at the disco

Mercenary Tab

Panic at the disco

Difficulty: nolevelnolevel

by paulantunes

tuner correct add songbook print version text version save to e-mail
chordsukulelecavacokeyboardtabbassdrumsharmonicsflute Guitar Pro
chords

Mercenary

  		

Intro/Verse: (12x) 

e|------5------5------5------5------5------5-------5-| 
B|----5------5------5-------5------5------5-------5--| 
G|---------------------------------------------------| 
D|-7-------6------5-------6------7------6-------5----| 
A|---------------------------------------------------| 
E|---------------------------------------------------| 

Last chords before the chorus 

e|-----------| 
B|-----1-----| 
G|-----2---1-| 
D|-----3---2-| 
A|-----3---2-| 
E|-----------| 

Chorus: 

e|-------3-------1---------------| 
B|---1---1-------3-----------1---| 
G|---2---0-------2-----------2---| 
D|---2---2-------------------3---| 
A|-------3-------------------3---| 
E|-------------------------------| 
  "Hey mis-ter - the bailman says 
  "I can only recall this nice hotel I said." 
   So he replies, "Then how do you manage?" 

e|----| 
B|----| 
G|--1-| 
D|--2-| 
A|--2-| 
E|----| 



Verse: 

e|------5------5------5------5------5------5-------5-| 
B|----5------5------5-------5------5------5-------5--| 
G|---------------------------------------------------| 
D|-7-------6------5-------6------7------6-------5----| 
A|---------------------------------------------------| 
E|---------------------------------------------------| 

Chorus 

e|-------3-------1---------------| 
B|---1---1-------3-----------1---| 
G|---2---0-------2-----------2---| 
D|---2---2-------------------3---| 
A|-------3-------------------3---| 
E|-------------------------------| 
  "Hey mis-ter - the bailman says 
  "I can only recall this nice hotel I said." 
   So he replies, "Then how do you manage?" 

e|----| 
B|----| 
G|--1-| 
D|--2-| 
A|--2-| 
E|----| 



Bridge: 


Final Chorus: 

e|-------3-------1---------------| 
B|---1---1-------3-----------1---| 
G|---2---0-------2-----------2---| 
D|---2---2-------------------3---| 
A|-------3-------------------3---| 
E|-------------------------------| 
  "Hey mis-ter - the bailman says 
  "I can only recall this nice hotel I said." 
   So he replies, "Then how do you manage?" 

e|----| 
B|----| 
G|--1-| 
D|--2-| 
A|--2-| 
E|----|  
	  

Search Paypal
auto scroll beats size up size down change color hide chords drawings
tab show chords e-chords YouTube Clip e-chords hide all tabs e-chords go to top tab