Pangaea

Collosus

Pangaea

tabs

save to print version add songbook text version e-mail correct tuner
chordsukulelecavacokeyboardtabbassdrumsharmonicaflute Guitar Pro
close

there isn't a video lesson for this song

chords

Collosus

	  		                                                                         
E----------------------------------------------------------------------- 
B----------------------------------------------------------------------- 
G----------------------------------------------------------------------- 
D---5-5-----------5-5-----------5-5-----------5-5---------5-5-5-----5--- 
A---5-5-----------5-5-----------5-5-----------5-5---------5-5-5-----5--- 
E---3-3-----------3-3-----------3-3-----------3-3---------3-3-3-----3--- 
                                                                         
 
                                                                         
E----------------------------------------------------------------------- 
B----------------------------------------------------------------------- 
G-----------------------------x---------------3-3----------------------- 
D-------5-----5-5-/-------8---x-\-5-5---\-3-3-3-3---------------5-5----- 
A-------5-----5-5-/-------8---x-\-5-5---\-3-3-1-1---------------5-5----- 
E-------3-----3-3-/-------6---x-\-3-3---\-1-1-------------------3-3----- 
                                                                         
 
                                                                         
E----------------------------------------------------------------------- 
B----------------------------------------------------------------------- 
G----------------------------------------------------------------------- 
D-------5-5-------5-5-----------5---\-----3----------------------------- 
A-------5-5-------5-5-----------5---\-----3----------------------------- 
E-------3-3-------3-3-----------3---\-----1----------------------------- 
                                                                         
 
                                                                         
E---||------------------------------------------------------------------ 
B---||------------------------------------------------------------------ 
G---||*-----------------x-x-------x-x-----9---------x-x---x-x-7---x-7--- 
D---||*-----------------x-x-------x-x-----9---------x-x---x-x-7---x-7--- 
A---||------------------x-x-------x-x-----7---------x-x---x-x-5---x-5--- 
E---||------------------x-x-------x-x-----x---------x-x---x-x-x---x-x--- 
                                                                         
 
                                                                         
E----------------------------------------------------------------------- 
B----------------------------------------------------------------------- 
G-------9---x-x-------x-x---9---------x-x---x-x-7---x-5---7------------- 
D---\---9---x-x-------x-x---9---------x-x---x-x-7---x-5-\-7------------- 
A---\---7---x-x-------x-x---7---------x-x---x-x-5---x-3-\-5------------- 
E---\---x---x-x-------x-x---x---------x-x---x-x-x---x-x-\-x------------- 
                                                                         
 
                                                                         
E----------------------------------------------------------------------- 
B----------------------------------------------------------------------- 
G----------------------------------------------------------------------- 
D----------------------------------------------------------------------- 
A----------------------------------------------------------------------- 
E----------------------------------------------------------------------- 
                                                                         
 
                                                            slap         
E---||------------------------------------------------------------------ 
B---||------------------------------------------------------------------ 
G---||*----------------------------------------------------------------- 
D---||*---------------------------2-2-2-----------------------2-2-2----- 
A---||----------------------------2-2-2-----------------------2-2-2----- 
E---||----------------------------0-0-0-----------------------0-0-0p---- 
                                                                         
 
                            slow heavy bit                           
E----------------------------------------------------------------------- 
B----------------------------------------------------------------------- 
G----------------------------------------------------------------------- 
D-----2-2-2---0-------------------------3---0---2-2--------------------- 
A-----2-2-2---0-------------------------3---0---2-2--------------------- 
E-----0-0-0p--0--------------------h----1p--0h--0-0--------------------- 
                                                                         
 
                                                                         
E---||------------------------------------------------------------------ 
B---||------------------------------------------------------------------ 
G---||*-------11-------------11---\---10---\-9---\-3-\-------------3---- 
D---||*-------11-------------11---\---10---\-9---\-3-\-9-\-3-/-4---3---- 
A---||--------9--------------9----\---8----\-7---\-5-\-9-\-3-/-4---1---- 
E---||-------------------------------------------------7-\-1-/-2-------- 
                                                                         
 
            back to the begining                                         
E----------------------------------------------------------------------- 
B----------------------------------------------------------------------- 
G----------------------------------------------------------------------- 
D---3-/-4-/-5----------------------------------------------------------- 
A---3-/-4-/-5----------------------------------------------------------- 
E---1-/-2-/-3----------------------------------------------------------- 
                                                                         
 
 
 
 
 

		  

See also:

tabs Beaverloop - Condesending tabs Baby Animals - One Word tabs The Beautiful Girls - Morning Sun tabs Hillsong Music Australia - jesus I long tabs Hillsong Music Australia - Song of Freedom tabs INXS - Need you tonight
e-chords

Other versions:

tabs Pangaea - Collosus tabs Distillers - Collosus U.S.A
auto scroll beats size up size down change color hide chords drawings
tab show chords e-chords YouTube Clip e-chords hide all tabs e-chords go to top tab

share