Panda

home > Panda

Promesas/Decepciones Tab

Panda

Difficulty: nolevelnolevel

by hongkong

tuner correct add songbook print version text version save to e-mail
chordsukulelecavacokeyboardtabbassdrumsharmonicsflute Guitar Pro
chords

Promesas/Decepciones

Year: 2007 - Album: Sinfonia Soledad

  		Guitarra1.- Afinacion Standard 
Guitarra2.- Dropped D (La sexta cuerda se afina en D) 
La Guitarra2 es la que hace los acordes y la uno es la que hace 
los arreglos 
Bueno hay les va! 
 
Intro: 
D-2-----| 
A-4-----| esto se hace hasta que comienza a cantar 
 
Continuacion: 
Bueno, aqui cambia el tono hasta que dice "Pensar" 
D-4---------| 
A-2------2--| 
E--------4--| 
 
Aqui entra la lira2 
e-----------------------| Bueno como esto se ocupa varias veces 
B-----------------------| vamos a llamarlo Riff1. 
G-------------444-444-4-| 
D-444-4-444-4-444-444-4-| 
A-444-4-444-4-222-222-2-| 
D-444-4-444-4-----------| 
 
Bueno enseguida de esto, sigue un verso, en el cual solo toca la 
guitarra1 haciendo un areglito(creo que no esta bien del todo 
pero suena chido, solo es cuestion de agarrarle el ritmo) 
 
e--------------| Ok, esto tambien se usa varias veces asi que 
B-4-2-5-425----| sera el Riff2, se repite varias veces dentro 
G--------------| del verso. 
 
Bueno, despues sigue la lira 2 haciendo el Riff1 en seguida va 
el coro, aqui la lira 2 toca lo siguiente 
 
e---------------------------------------- 
B---------------------------------------- 
G---------------------------------------- 
D---------------------------------------- 
A-4444444-6666666-7777777-999999-11-9-7-- 
D-4444444-6666666-7777777-999999-11-9-7-- 
 
e---------------------------------------- 
B---------------------------------------- (En los numero 1 es el 
G---------------------------------------- traste 11) 
D---------------------------------------- 
A-4444444-6666666-7777777-111111-9999999- 
D-4444444-6666666-7777777-111111-9999999- 
 
Aqui se repite la primer parte del coro. 
Bueno, ahora, mientras se toca esto la lira1 toca un areglito 
se toca al ritmo de la lira2. 
 
D-4444444/6666666/7777777/999999--11-9-7- 
A---------------------------------------- 
E---------------------------------------- 
 
D-4444444/6666666/7777777/1111119999999- 
A---------------------------------------- 
E---------------------------------------- 
 
aqui se repite la primera parte del arreglo, pero con la 
diferencia de que al tocar el traste 7 se hace un slide hacia 
arriba. 
 
Bueno ahora se reíte el riff1 con la lira2, y lo que sigue 
es una continuacion del coro pero esta parte es mas lenta 
se toca con la lira 2 
 
e-------------------------------------- Esto se toca 2 veces 
B-------------------------------------- y el circulo se cierra 
G-------------------------------------- con E5 (traste 2) 
D-4444444-2222222-4444444-7777-9999999- 
A-4444444-2222222-4444444-7777-9999999- 
D-4444444-2222222-4444444-7777-9999999- 
 
Bueno desde que dije que era el coro, hasta aqui termina, 
que chequenlo bien. Aqui hace un puente el bajo y comenzamos 
en la lira1 con el Riff2 con algunas variacones que son estas: 
 
e--------------|    e----------| e-----------| 
B-4-2-5-425----| X2 b-2-0-3-203| b-3-1-4-314-| 
G--------------|    G----------| G-----------| 
 
Al terminar la tercera variacion, comienza el riff2 otra vez, 
e igual se toca 2 veces, terminando esto va de vuelta la lira2 
con el Riff1 y comienza el coro otra vez. 
Terminando el coro va un puente del bajo y en seguida ba la lira2 
con lo siguiente: 
 
 
e----------------------------| Se repite varias veces, escucha 
B----------------------------| bien la rola, para calcular los 
G----------------------------| tiempos. El circulo se termina 
D-6-6-6-6-6-4-4--------------| con C#5 
A-4-4-4-4-4-2-2-7-7-7-7-7-9-9| 
D---------------7-7-7-7-7-9-9| 
 
Mientras se toca esto la lira1 hace de las suyas con un pequeño 
arreglo, igual se toca al ritmo y un poco antes del cambio de 
tono 
D-66-66-66-6644-22-22-22-2244- Se repite varias veces 
A----------------------------- 
E----------------------------- 
 
Terminando esto, comienza la un puente con el puro bajo, 
luego sigue la lira 2 con el Riff1 pero con un pequeño cambio. 
 
 
e-----------------------| 
B-----------------------| 
G-------------444-444-4-| 
D-777-7-777-7-444-444-4-| 
A-777-7-777-7-222-222-2-| 
D-777-7-777-7-----------| 
 
Luego el coro, y en ves de terminar con E5 se termina con D#5 
e-----| 
B-----| 
G-----| 
D-1---| 
A-1---| 
D-1---| 
 
Eso es todo espero les guste, cualquier correccion por ahi anda 
mi mail arriba,(creo que solo me falto por hay un arreglo en el 
primer puente del bajo, luego se los mando). 
 
Nota:Escuchen bien rola pa' que no haya confusiones. 
 
Esta rola se la dedico a Ary que la quiero mucho. 
Tabbed By Devilskate 
(Osea yo jaja). 
 

	  

Full key step upFull key step up
Half key step upHalf key step up
Half key step downHalf key step down
Full key step downFull key step down
Search Paypal
auto scroll beats size up size down change color hide chords drawings
tab show chords e-chords YouTube Clip e-chords hide all tabs e-chords go to top tab