Panda

Muņeca

Panda

tabs Beginner beginner

by  ROY1900

save to print version add songbook text version e-mail correct tuner
chordsukulelecavacokeyboardtabbassdrumsharmonicaflute Guitar Pro
close

there isn't a video lesson for this song

chords

Muņeca

Year: 2002 - Album: Para Ti Con Desprecio

	  		Panda - Muņeca 
 
Intro 
el----------------------------l-------------------------------------------| 
Bl---------2----------------2-l--4----5---4---2---0--------0h2------------| 
Gl-4---------------4----------l--------------------------------------4--3-l  x2 
Dl------4-----4--------4------l----------------------4--------4-----------| 
Al-2--------------------------l-------------------------------------------| 
El------------------2---------l----------4-----------------0--------------| 
                                                                               
Guitarra 1 (Guitarra Ritmica) 
el----------------------------------------| 
Bl----------------------------------------| 
Gl---4-4-4-4------------------------------l   x4 
Dl---4-4-4-4-4-4-4-4-6-6-6-6-2-2-2-2------| 
Al---2-2-2-2-4-4-4-4-6-6-6-6-2-2-2-2------| 
El-----------2-2-2-2-4-4-4-4-0-0-0-0------| 
                                                                               
Guitarra 2 
el-----------6-7-------| 
Bl-4--5--6-------6?5--4| 
Gl---------------------| 	x4 
Dl---------------------| 
Al---------------------| 
El---------------------| 
                                                                               
Guitarra 2 
el-------------------------------| 
Bl-0--2--0--2---4-5-4-2-0?2------| 
Gl---------------------------4-3-| 
Dl-------------------------------| 	x4 
Al-------------------------------| 
El-------------------------------| 
                                                                              
Guitarra 1 (Cambio de tono)  
el---------------------------------------| 
Bl---------------------------------------| 
Gl-6-6-6-6-------------------------------| 
Dl-6-6-6-6-6-6-6-6-8-8-8-8-4-4-4-4-------l 
Al-4-4-4-4-6-6-6-6-8-8-8-8-4-4-4-4-------| 
El---------4-4-4-4-6-6-6-6-2-2-2-2-------l 
                                                                               
 
 
SOLO (Mientras toca la Guitarra 1 con el cambio de tono) 
e|--------------------------------|--------------------------------| 
B|-----9--------------------------|------9---------------11-11-9-7-| 
G|-/10---8-10-8--------/11-10-----|-/10----8-10-8------------------| 
D|-----------------11-11----------|------------------11------------| 
A|--------------------------------|--------------------------------| 
E|--------------------------------|--------------------------------| 
 
e|--------------------------------9--------8-9------8-9-------8-9---------11-11-11-9-9~-| 
B|------9---------------11-11-----------------------------------------------------------| 
G|-/10----8-10-8---------------------11-10----11-10----11-10-----11-10------------------| 
D|------------------11------------------------------------------------------------------| 
A|--------------------------------------------------------------------------------------| 
E| -------------------------------------------------------------------------------------| 
 
 

		  

See also:

tabs Panda - Un Tipo De Indulgencia tabs Panda - Ya no Jalaba tabs Panda - El Cuello Perfecto tabs Panda - Si Supieras tabs Loukass - Hombre Lobo tabs Loukass - La Torcida
e-chords

Other versions:

tabs Panda - Muņeca
auto scroll beats size up size down change color hide chords drawings
tab show chords e-chords YouTube Clip e-chords hide all tabs e-chords go to top tab

share